  0
SECTION
  2
HEADER
  9
$ACADVER
  1
AC1015
  9
$ACADMAINTVER
 70
    20
  9
$DWGCODEPAGE
  3
ANSI_1252
  9
$INSBASE
 10
0.0
 20
0.0
 30
0.0
  9
$EXTMIN
 10
415.1742568323088
 20
363.8504031490575
 30
-0.0000000349181948
  9
$EXTMAX
 10
417.7697763659175
 20
364.4064258342019
 30
0.0000000814935746
  9
$LIMMIN
 10
0.0
 20
0.0
  9
$LIMMAX
 10
420.0
 20
297.0
  9
$ORTHOMODE
 70
     1
  9
$REGENMODE
 70
     1
  9
$FILLMODE
 70
     1
  9
$QTEXTMODE
 70
     0
  9
$MIRRTEXT
 70
     1
  9
$LTSCALE
 40
1.0
  9
$ATTMODE
 70
     1
  9
$TEXTSIZE
 40
2.5
  9
$TRACEWID
 40
1.0
  9
$TEXTSTYLE
  7
Standard
  9
$CLAYER
  8
0
  9
$CELTYPE
  6
ByLayer
  9
$CECOLOR
 62
   256
  9
$CELTSCALE
 40
1.0
  9
$DISPSILH
 70
     0
  9
$DIMSCALE
 40
1.0
  9
$DIMASZ
 40
2.5
  9
$DIMEXO
 40
0.625
  9
$DIMDLI
 40
3.75
  9
$DIMRND
 40
0.0
  9
$DIMDLE
 40
0.0
  9
$DIMEXE
 40
1.25
  9
$DIMTP
 40
0.0
  9
$DIMTM
 40
0.0
  9
$DIMTXT
 40
2.5
  9
$DIMCEN
 40
2.5
  9
$DIMTSZ
 40
0.0
  9
$DIMTOL
 70
     0
  9
$DIMLIM
 70
     0
  9
$DIMTIH
 70
     0
  9
$DIMTOH
 70
     0
  9
$DIMSE1
 70
     0
  9
$DIMSE2
 70
     0
  9
$DIMTAD
 70
     1
  9
$DIMZIN
 70
     8
  9
$DIMBLK
  1

  9
$DIMASO
 70
     1
  9
$DIMSHO
 70
     1
  9
$DIMPOST
  1

  9
$DIMAPOST
  1

  9
$DIMALT
 70
     0
  9
$DIMALTD
 70
     3
  9
$DIMALTF
 40
0.03937007874016
  9
$DIMLFAC
 40
1.0
  9
$DIMTOFL
 70
     1
  9
$DIMTVP
 40
0.0
  9
$DIMTIX
 70
     0
  9
$DIMSOXD
 70
     0
  9
$DIMSAH
 70
     0
  9
$DIMBLK1
  1

  9
$DIMBLK2
  1

  9
$DIMSTYLE
  2
ISO-25
  9
$DIMCLRD
 70
     0
  9
$DIMCLRE
 70
     0
  9
$DIMCLRT
 70
     0
  9
$DIMTFAC
 40
1.0
  9
$DIMGAP
 40
0.625
  9
$DIMJUST
 70
     0
  9
$DIMSD1
 70
     0
  9
$DIMSD2
 70
     0
  9
$DIMTOLJ
 70
     0
  9
$DIMTZIN
 70
     8
  9
$DIMALTZ
 70
     0
  9
$DIMALTTZ
 70
     0
  9
$DIMUPT
 70
     0
  9
$DIMDEC
 70
     2
  9
$DIMTDEC
 70
     2
  9
$DIMALTU
 70
     2
  9
$DIMALTTD
 70
     3
  9
$DIMTXSTY
  7
Standard
  9
$DIMAUNIT
 70
     0
  9
$DIMADEC
 70
     0
  9
$DIMALTRND
 40
0.0
  9
$DIMAZIN
 70
     0
  9
$DIMDSEP
 70
    44
  9
$DIMATFIT
 70
     3
  9
$DIMFRAC
 70
     0
  9
$DIMLDRBLK
  1

  9
$DIMLUNIT
 70
     2
  9
$DIMLWD
 70
    -2
  9
$DIMLWE
 70
    -2
  9
$DIMTMOVE
 70
     0
  9
$LUNITS
 70
     2
  9
$LUPREC
 70
     4
  9
$SKETCHINC
 40
1.0
  9
$FILLETRAD
 40
10.0
  9
$AUNITS
 70
     0
  9
$AUPREC
 70
     0
  9
$MENU
  1
.
  9
$ELEVATION
 40
0.0
  9
$PELEVATION
 40
0.0
  9
$THICKNESS
 40
0.0
  9
$LIMCHECK
 70
     0
  9
$CHAMFERA
 40
10.0
  9
$CHAMFERB
 40
10.0
  9
$CHAMFERC
 40
20.0
  9
$CHAMFERD
 40
0.0
  9
$SKPOLY
 70
     0
  9
$TDCREATE
 40
2452908.589083287
  9
$TDUCREATE
 40
2452908.547416621
  9
$TDUPDATE
 40
2453923.406960532
  9
$TDUUPDATE
 40
2453923.365293866
  9
$TDINDWG
 40
0.0072374074
  9
$TDUSRTIMER
 40
0.0072374074
  9
$USRTIMER
 70
     1
  9
$ANGBASE
 50
0.0
  9
$ANGDIR
 70
     0
  9
$PDMODE
 70
     0
  9
$PDSIZE
 40
0.0
  9
$PLINEWID
 40
0.0
  9
$SPLFRAME
 70
     0
  9
$SPLINETYPE
 70
     6
  9
$SPLINESEGS
 70
     8
  9
$HANDSEED
  5
B57
  9
$SURFTAB1
 70
     6
  9
$SURFTAB2
 70
     6
  9
$SURFTYPE
 70
     6
  9
$SURFU
 70
     6
  9
$SURFV
 70
     6
  9
$UCSBASE
  2

  9
$UCSNAME
  2

  9
$UCSORG
 10
0.0
 20
0.0
 30
0.0
  9
$UCSXDIR
 10
1.0
 20
0.0
 30
0.0
  9
$UCSYDIR
 10
0.0
 20
1.0
 30
0.0
  9
$UCSORTHOREF
  2

  9
$UCSORTHOVIEW
 70
     0
  9
$UCSORGTOP
 10
0.0
 20
0.0
 30
0.0
  9
$UCSORGBOTTOM
 10
0.0
 20
0.0
 30
0.0
  9
$UCSORGLEFT
 10
0.0
 20
0.0
 30
0.0
  9
$UCSORGRIGHT
 10
0.0
 20
0.0
 30
0.0
  9
$UCSORGFRONT
 10
0.0
 20
0.0
 30
0.0
  9
$UCSORGBACK
 10
0.0
 20
0.0
 30
0.0
  9
$PUCSBASE
  2

  9
$PUCSNAME
  2

  9
$PUCSORG
 10
0.0
 20
0.0
 30
0.0
  9
$PUCSXDIR
 10
1.0
 20
0.0
 30
0.0
  9
$PUCSYDIR
 10
0.0
 20
1.0
 30
0.0
  9
$PUCSORTHOREF
  2

  9
$PUCSORTHOVIEW
 70
     0
  9
$PUCSORGTOP
 10
0.0
 20
0.0
 30
0.0
  9
$PUCSORGBOTTOM
 10
0.0
 20
0.0
 30
0.0
  9
$PUCSORGLEFT
 10
0.0
 20
0.0
 30
0.0
  9
$PUCSORGRIGHT
 10
0.0
 20
0.0
 30
0.0
  9
$PUCSORGFRONT
 10
0.0
 20
0.0
 30
0.0
  9
$PUCSORGBACK
 10
0.0
 20
0.0
 30
0.0
  9
$USERI1
 70
     0
  9
$USERI2
 70
     0
  9
$USERI3
 70
     0
  9
$USERI4
 70
     0
  9
$USERI5
 70
     0
  9
$USERR1
 40
0.0
  9
$USERR2
 40
0.0
  9
$USERR3
 40
0.0
  9
$USERR4
 40
0.0
  9
$USERR5
 40
0.0
  9
$WORLDVIEW
 70
     1
  9
$SHADEDGE
 70
     3
  9
$SHADEDIF
 70
    70
  9
$TILEMODE
 70
     1
  9
$MAXACTVP
 70
    64
  9
$PINSBASE
 10
0.0
 20
0.0
 30
0.0
  9
$PLIMCHECK
 70
     0
  9
$PEXTMIN
 10
1.000000000000000E+20
 20
1.000000000000000E+20
 30
1.000000000000000E+20
  9
$PEXTMAX
 10
-1.000000000000000E+20
 20
-1.000000000000000E+20
 30
-1.000000000000000E+20
  9
$PLIMMIN
 10
0.0
 20
0.0
  9
$PLIMMAX
 10
420.0
 20
297.0
  9
$UNITMODE
 70
     0
  9
$VISRETAIN
 70
     1
  9
$PLINEGEN
 70
     0
  9
$PSLTSCALE
 70
     1
  9
$TREEDEPTH
 70
  3020
  9
$CMLSTYLE
  2
Standard
  9
$CMLJUST
 70
     0
  9
$CMLSCALE
 40
20.0
  9
$PROXYGRAPHICS
 70
     1
  9
$MEASUREMENT
 70
     1
  9
$CELWEIGHT
370
    -1
  9
$ENDCAPS
280
     0
  9
$JOINSTYLE
280
     0
  9
$LWDISPLAY
290
     0
  9
$INSUNITS
 70
     4
  9
$HYPERLINKBASE
  1

  9
$STYLESHEET
  1

  9
$XEDIT
290
     1
  9
$CEPSNTYPE
380
     0
  9
$PSTYLEMODE
290
     1
  9
$FINGERPRINTGUID
  2
{619D745B-D348-45EB-AD69-6F7C2514A68E}
  9
$VERSIONGUID
  2
{3E5F458D-8F9E-431B-B16C-AFCADA5BD25E}
  9
$EXTNAMES
290
     1
  9
$PSVPSCALE
 40
0.0
  9
$OLESTARTUP
290
     0
  0
ENDSEC
  0
SECTION
  2
CLASSES
  0
CLASS
  1
ACDBDICTIONARYWDFLT
  2
AcDbDictionaryWithDefault
  3
ObjectDBX Classes
 90
        0
280
     0
281
     0
  0
CLASS
  1
ACDBPLACEHOLDER
  2
AcDbPlaceHolder
  3
ObjectDBX Classes
 90
        0
280
     0
281
     0
  0
CLASS
  1
LAYOUT
  2
AcDbLayout
  3
ObjectDBX Classes
 90
        0
280
     0
281
     0
  0
CLASS
  1
DIMASSOC
  2
AcDbDimAssoc
  3
"AcDbDimAssoc|Product Desc:     AcDim ARX App For Dimension|Company:          Autodesk, Inc.|WEB Address:      www.autodesk.com"
 90
    32768
280
     0
281
     0
  0
CLASS
  1
DICTIONARYVAR
  2
AcDbDictionaryVar
  3
ObjectDBX Classes
 90
        0
280
     0
281
     0
  0
CLASS
  1
TABLESTYLE
  2
AcDbTableStyle
  3
ObjectDBX Classes
 90
     2047
280
     0
281
     0
  0
ENDSEC
  0
SECTION
  2
TABLES
  0
TABLE
  2
VPORT
  5
8
330
0
100
AcDbSymbolTable
 70
     3
  0
VPORT
  5
B4F
330
8
100
AcDbSymbolTableRecord
100
AcDbViewportTableRecord
  2
*Active
 70
     0
 10
0.0
 20
0.0
 11
1.0
 21
1.0
 12
416.4720165991131
 22
364.1284144916296
 13
0.0
 23
0.0
 14
10.0
 24
10.0
 15
10.0
 25
10.0
 16
0.0
 26
0.0
 36
1.0
 17
0.0
 27
0.0
 37
0.0
 40
1.634553032918197
 41
1.593939393939393
 42
50.0
 43
0.0
 44
0.0
 50
0.0
 51
0.0
 71
     0
 72
   100
 73
     1
 74
     3
 75
     0
 76
     0
 77
     0
 78
     0
281
     0
 65
     1
110
0.0
120
0.0
130
0.0
111
1.0
121
0.0
131
0.0
112
0.0
122
1.0
132
0.0
 79
     0
146
0.0
  0
ENDTAB
  0
TABLE
  2
LTYPE
  5
5
330
0
100
AcDbSymbolTable
 70
     6
  0
LTYPE
  5
14
330
5
100
AcDbSymbolTableRecord
100
AcDbLinetypeTableRecord
  2
ByBlock
 70
     0
  3

 72
    65
 73
     0
 40
0.0
  0
LTYPE
  5
15
330
5
100
AcDbSymbolTableRecord
100
AcDbLinetypeTableRecord
  2
ByLayer
 70
     0
  3

 72
    65
 73
     0
 40
0.0
  0
LTYPE
  5
16
330
5
100
AcDbSymbolTableRecord
100
AcDbLinetypeTableRecord
  2
Continuous
 70
     0
  3
Solid line
 72
    65
 73
     0
 40
0.0
  0
LTYPE
  5
21F
330
5
100
AcDbSymbolTableRecord
100
AcDbLinetypeTableRecord
  2
HIDDEN
 70
     0
  3
Hidden __ __ __ __ __ __ __ __ __ __ __ __ __ _
 72
    65
 73
     2
 40
9.524999999999998
 49
6.349999999999999
 74
     0
 49
-3.174999999999999
 74
     0
  0
LTYPE
  5
220
330
5
100
AcDbSymbolTableRecord
100
AcDbLinetypeTableRecord
  2
CENTER
 70
     0
  3
Center ____ _ ____ _ ____ _ ____ _ ____ _ ____
 72
    65
 73
     4
 40
10.16
 49
6.349999999999999
 74
     0
 49
-1.27
 74
     0
 49
1.27
 74
     0
 49
-1.27
 74
     0
  0
LTYPE
  5
221
330
5
100
AcDbSymbolTableRecord
100
AcDbLinetypeTableRecord
  2
ACISOWELD
 70
     0
  3
_ _ _ _ _
 72
    65
 73
     2
 40
2.0
 49
2.0
 74
     0
 49
-1.0
 74
     0
  0
LTYPE
  5
222
330
5
100
AcDbSymbolTableRecord
100
AcDbLinetypeTableRecord
  2
ACISOTGL
 70
     0
  3
_ _ _ _ _
 72
    65
 73
     2
 40
3.0
 49
2.0
 74
     0
 49
-1.0
 74
     0
  0
ENDTAB
  0
TABLE
  2
LAYER
  5
2
330
0
100
AcDbSymbolTable
 70
     9
  0
LAYER
  5
10
330
2
100
AcDbSymbolTableRecord
100
AcDbLayerTableRecord
  2
0
 70
     0
 62
     7
  6
Continuous
370
    -3
390
F
  0
LAYER
  5
223
330
2
100
AcDbSymbolTableRecord
100
AcDbLayerTableRecord
  2
Defpoints
 70
     0
 62
     7
  6
Continuous
290
     0
370
    -3
390
F
  0
LAYER
  5
224
330
2
100
AcDbSymbolTableRecord
100
AcDbLayerTableRecord
  2
9
 70
     0
 62
     9
  6
Continuous
370
    -3
390
F
  0
LAYER
  5
225
330
2
100
AcDbSymbolTableRecord
100
AcDbLayerTableRecord
  2
hatch
 70
     0
 62
     9
  6
Continuous
370
    -3
390
F
  0
LAYER
  5
226
330
2
100
AcDbSymbolTableRecord
100
AcDbLayerTableRecord
  2
INDUSA
 70
     0
 62
     3
  6
Continuous
370
    -3
390
F
  0
LAYER
  5
227
330
2
100
AcDbSymbolTableRecord
100
AcDbLayerTableRecord
  2
COTAS
 70
     0
 62
     1
  6
Continuous
370
    -3
390
F
  0
LAYER
  5
228
330
2
100
AcDbSymbolTableRecord
100
AcDbLayerTableRecord
  2
INDUSA HID
 70
     0
 62
     9
  6
HIDDEN
370
    -3
390
F
  0
LAYER
  5
229
330
2
100
AcDbSymbolTableRecord
100
AcDbLayerTableRecord
  2
INDUSA CEN
 70
     0
 62
     9
  6
CENTER
370
    -3
390
F
  0
LAYER
  5
B4E
330
2
100
AcDbSymbolTableRecord
100
AcDbLayerTableRecord
  2
sanindusa
 70
     0
 62
     3
  6
Continuous
370
    -3
390
F
  0
ENDTAB
  0
TABLE
  2
STYLE
  5
3
330
0
100
AcDbSymbolTable
 70
     2
  0
STYLE
  5
11
330
3
100
AcDbSymbolTableRecord
100
AcDbTextStyleTableRecord
  2
Standard
 70
     0
 40
0.0
 41
1.0
 50
0.0
 71
     0
 42
2.5
  3
txt
  4

  0
STYLE
  5
22A
330
3
100
AcDbSymbolTableRecord
100
AcDbTextStyleTableRecord
  2
SANINDUSA
 70
     0
 40
0.0
 41
1.0
 50
0.0
 71
     0
 42
2.5
  3
zurchn.ttf
  4

1001
ACAD
1000
Zurich BT
1071
       34
  0
ENDTAB
  0
TABLE
  2
VIEW
  5
6
330
0
100
AcDbSymbolTable
 70
     0
  0
ENDTAB
  0
TABLE
  2
UCS
  5
7
330
0
100
AcDbSymbolTable
 70
     0
  0
ENDTAB
  0
TABLE
  2
APPID
  5
9
330
0
100
AcDbSymbolTable
 70
     3
  0
APPID
  5
12
330
9
100
AcDbSymbolTableRecord
100
AcDbRegAppTableRecord
  2
ACAD
 70
     0
  0
APPID
  5
B20
330
9
100
AcDbSymbolTableRecord
100
AcDbRegAppTableRecord
  2
DCO15
 70
     0
  0
APPID
  5
B46
330
9
100
AcDbSymbolTableRecord
100
AcDbRegAppTableRecord
  2
ACAD_EXEMPT_FROM_CAD_STANDARDS
 70
     0
  0
ENDTAB
  0
TABLE
  2
DIMSTYLE
  5
A
330
0
100
AcDbSymbolTable
 70
     4
100
AcDbDimStyleTable
 71
     1
340
27
  0
DIMSTYLE
105
27
330
A
100
AcDbSymbolTableRecord
100
AcDbDimStyleTableRecord
  2
ISO-25
 70
     0
 41
2.5
 42
0.625
 43
3.75
 44
1.25
 73
     0
 74
     0
 77
     1
 78
     8
140
2.5
141
2.5
143
0.03937007874016
147
0.625
171
     3
172
     1
271
     2
272
     2
274
     3
278
    44
283
     0
284
     8
340
11
  0
DIMSTYLE
105
22B
330
A
100
AcDbSymbolTableRecord
100
AcDbDimStyleTableRecord
  2
SANINDUSA
 70
     0
 41
3.0
 42
1.0
 43
1.0
 44
1.0
 73
     0
 74
     0
 77
     1
 78
     8
140
2.0
141
0.0
143
0.03937007874016
147
1.0
171
     3
172
     1
176
     1
177
     1
178
     1
179
     1
271
     1
272
     1
274
     3
278
    44
283
     0
284
     8
340
22A
371
    -1
372
    -1
  0
DIMSTYLE
105
AA1
330
A
100
AcDbSymbolTableRecord
100
AcDbDimStyleTableRecord
  2
STANDARD
 70
     0
271
     3
272
     3
279
     2
284
     1
285
     1
286
     1
340
11
  0
ENDTAB
  0
TABLE
  2
BLOCK_RECORD
  5
1
330
0
100
AcDbSymbolTable
 70
     3
  0
BLOCK_RECORD
  5
1F
330
1
100
AcDbSymbolTableRecord
100
AcDbBlockTableRecord
  2
*Model_Space
340
22
  0
BLOCK_RECORD
  5
1B
330
1
100
AcDbSymbolTableRecord
100
AcDbBlockTableRecord
  2
*Paper_Space
340
1E
  0
BLOCK_RECORD
  5
23
330
1
100
AcDbSymbolTableRecord
100
AcDbBlockTableRecord
  2
*Paper_Space0
340
26
  0
BLOCK_RECORD
  5
AA2
330
1
100
AcDbSymbolTableRecord
100
AcDbBlockTableRecord
  2
14032CT
340
0
  0
ENDTAB
  0
ENDSEC
  0
SECTION
  2
BLOCKS
  0
BLOCK
  5
20
330
1F
100
AcDbEntity
  8
0
100
AcDbBlockBegin
  2
*Model_Space
 70
     0
 10
0.0
 20
0.0
 30
0.0
  3
*Model_Space
  1

  0
ENDBLK
  5
21
330
1F
100
AcDbEntity
  8
0
100
AcDbBlockEnd
  0
BLOCK
  5
1C
330
1B
100
AcDbEntity
 67
     1
  8
0
100
AcDbBlockBegin
  2
*Paper_Space
 70
     0
 10
0.0
 20
0.0
 30
0.0
  3
*Paper_Space
  1

  0
ENDBLK
  5
1D
330
1B
100
AcDbEntity
 67
     1
  8
0
100
AcDbBlockEnd
  0
BLOCK
  5
24
330
23
100
AcDbEntity
 67
     1
  8
0
100
AcDbBlockBegin
  2
*Paper_Space0
 70
     0
 10
0.0
 20
0.0
 30
0.0
  3
*Paper_Space0
  1

  0
ENDBLK
  5
25
330
23
100
AcDbEntity
 67
     1
  8
0
100
AcDbBlockEnd
  0
BLOCK
  5
B1B
330
AA2
100
AcDbEntity
  8
0
100
AcDbBlockBegin
  2
14032CT
 70
     0
 10
0.0
 20
0.0
 30
0.0
  3
14032CT
  1

  0
ARC
  5
AA3
330
AA2
100
AcDbEntity
  8
INDUSA
100
AcDbCircle
 10
3.119939
 20
-1.631648
 30
0.0
 40
3.273982
100
AcDbArc
 50
143.285912
 51
146.168811
  0
ARC
  5
AA4
330
AA2
100
AcDbEntity
  8
INDUSA
100
AcDbCircle
 10
3.119939
 20
-1.631648
 30
0.0
 40
3.263981999999999
100
AcDbArc
 50
141.682652
 51
146.168811
  0
LINE
  5
AA5
330
AA2
100
AcDbEntity
  8
INDUSA
100
AcDbLine
 10
0.154518
 20
0.36
 30
0.0
 11
0.15805
 21
0.36
 31
0.0
  0
LINE
  5
AA6
330
AA2
100
AcDbEntity
  8
INDUSA
100
AcDbLine
 10
0.115486
 20
0.4
 30
0.0
 11
0.5550000000000001
 21
0.4
 31
0.0
  0
LWPOLYLINE
  5
AA7
330
AA2
100
AcDbEntity
  8
INDUSA
100
AcDbPolyline
 90
       32
 70
     0
 43
0.0
 10
0.513
 20
0.36
 10
0.50313
 20
0.3479999999999999
 10
0.4940660000000001
 20
0.33806
 10
0.485678
 20
0.329897
 10
0.477832
 20
0.323229
 10
0.470397
 20
0.317772
 10
0.4632410000000001
 20
0.313242
 10
0.456231
 20
0.309357
 10
0.4492360000000001
 20
0.305833
 10
0.4421590000000001
 20
0.302437
 10
0.435037
 20
0.299128
 10
0.4279450000000001
 20
0.295916
 10
0.4209550000000001
 20
0.292813
 10
0.414141
 20
0.289826
 10
0.407576
 20
0.286966
 10
0.4013340000000001
 20
0.284243
 10
0.395486
 20
0.281667
 10
0.390081
 20
0.279194
 10
0.385059
 20
0.27657
 10
0.380334
 20
0.27349
 10
0.37582
 20
0.269646
 10
0.37143
 20
0.264731
 10
0.36708
 20
0.25844
 10
0.362683
 20
0.250465
 10
0.358153
 20
0.2405
 10
0.353428
 20
0.228422
 10
0.348547
 20
0.214841
 10
0.343571
 20
0.200553
 10
0.338561
 20
0.186353
 10
0.333581
 20
0.173036
 10
0.32869
 20
0.161395
 10
0.327172
 20
0.158457
  0
LWPOLYLINE
  5
AA8
330
AA2
100
AcDbEntity
  8
INDUSA
100
AcDbPolyline
 90
       30
 70
     0
 43
0.0
 10
0.494914
 20
0.324932
 10
0.4924100000000001
 20
0.322496
 10
0.4840360000000001
 20
0.315379
 10
0.4760360000000001
 20
0.309506
 10
0.4683430000000001
 20
0.304637
 10
0.460906
 20
0.3005149999999999
 10
0.4536500000000001
 20
0.296859
 10
0.446429
 20
0.293394
 10
0.4392070000000001
 20
0.290038
 10
0.4320370000000001
 20
0.286792
 10
0.424992
 20
0.283663
 10
0.4181350000000001
 20
0.280658
 10
0.411572
 20
0.277799
 10
0.405349
 20
0.275085
 10
0.399583
 20
0.272544
 10
0.39448
 20
0.270209
 10
0.390117
 20
0.26793
 10
0.386331
 20
0.2654619999999999
 10
0.382823
 20
0.262475
 10
0.379302
 20
0.258533
 10
0.375593
 20
0.253169
 10
0.371626
 20
0.245975
 10
0.367368
 20
0.236607
 10
0.362795
 20
0.224914
 10
0.357994
 20
0.211538
 10
0.353064
 20
0.197335
 10
0.348102
 20
0.183174
 10
0.34315
 20
0.169793
 10
0.338222
 20
0.157904
 10
0.337959
 20
0.157391
  0
LINE
  5
AA9
330
AA2
100
AcDbEntity
  8
INDUSA
100
AcDbLine
 10
0.105486
 20
0.39
 30
0.0
 11
0.159518
 21
0.39
 31
0.0
  0
LINE
  5
AAA
330
AA2
100
AcDbEntity
  8
INDUSA
100
AcDbLine
 10
0.102264
 20
0.352897
 30
0.0
 11
0.135622
 21
0.358759
 31
0.0
  0
ARC
  5
AAB
330
AA2
100
AcDbEntity
  8
INDUSA
100
AcDbCircle
 10
0.181122
 20
-0.021095
 30
0.0
 40
0.393254
100
AcDbArc
 50
96.007419
 51
107.479933
  0
ARC
  5
AAC
330
AA2
100
AcDbEntity
  8
INDUSA
100
AcDbCircle
 10
0.043971
 20
-0.527314
 30
0.0
 40
0.8194749999999999
100
AcDbArc
 50
81.84827699999999
 51
88.86445700000001
  0
ARC
  5
AAD
330
AA2
100
AcDbEntity
  8
INDUSA
100
AcDbCircle
 10
0.055629
 20
0.132692
 30
0.0
 40
0.090666
100
AcDbArc
 50
12.754785
 51
64.923423
  0
ARC
  5
AAE
330
AA2
100
AcDbEntity
  8
INDUSA
100
AcDbCircle
 10
0.059066
 20
0.134411
 30
0.0
 40
0.076395
100
AcDbArc
 50
12.149902
 51
60.156418
  0
ARC
  5
AAF
330
AA2
100
AcDbEntity
  8
INDUSA
100
AcDbCircle
 10
0.043971
 20
-0.527314
 30
0.0
 40
0.829475
100
AcDbArc
 50
82.523301
 51
91.65604399999999
  0
LINE
  5
AB0
330
AA2
100
AcDbEntity
  8
INDUSA
100
AcDbLine
 10
0.0
 20
0.055
 30
0.0
 11
0.20265
 21
0.085124
 31
0.0
  0
LINE
  5
AB1
330
AA2
100
AcDbEntity
  8
INDUSA
100
AcDbLine
 10
0.089855
 20
0.197932
 30
0.0
 11
0.044964
 21
0.064441
 31
0.0
  0
LINE
  5
AB2
330
AA2
100
AcDbEntity
  8
INDUSA
100
AcDbLine
 10
0.077431
 20
0.192361
 30
0.0
 11
0.042838
 21
0.089492
 31
0.0
  0
LINE
  5
AB3
330
AA2
100
AcDbEntity
  8
INDUSA
100
AcDbLine
 10
0.0
 20
0.071228
 30
0.0
 11
0.0
 21
0.419
 31
0.0
  0
ARC
  5
AB4
330
AA2
100
AcDbEntity
  8
INDUSA
100
AcDbCircle
 10
0.038099
 20
0.091085
 30
0.0
 40
0.005
100
AcDbArc
 50
285.945396
 51
341.413073
  0
ARC
  5
AB5
330
AA2
100
AcDbEntity
  8
INDUSA
100
AcDbCircle
 10
0.040225
 20
0.066034
 30
0.0
 40
0.005
100
AcDbArc
 50
278.455028
 51
341.413073
  0
ARC
  5
AB6
330
AA2
100
AcDbEntity
  8
INDUSA
100
AcDbCircle
 10
0.005
 20
0.071228
 30
0.0
 40
0.005
100
AcDbArc
 50
105.945396
 51
180.0
  0
LINE
  5
AB7
330
AA2
100
AcDbEntity
  8
INDUSA
100
AcDbLine
 10
0.0
 20
0.055
 30
0.0
 11
0.0
 21
0.071228
 31
0.0
  0
LINE
  5
AB8
330
AA2
100
AcDbEntity
  8
INDUSA
100
AcDbLine
 10
0.039472
 20
0.086278
 30
0.0
 11
0.003626
 21
0.076036
 31
0.0
  0
LINE
  5
AB9
330
AA2
100
AcDbEntity
  8
INDUSA
100
AcDbLine
 10
0.02
 20
0.2
 30
0.0
 11
0.02
 21
0.301814
 31
0.0
  0
LINE
  5
ABA
330
AA2
100
AcDbEntity
  8
INDUSA
100
AcDbLine
 10
0.02
 20
0.292
 30
0.0
 11
0.060211
 21
0.292
 31
0.0
  0
LINE
  5
ABB
330
AA2
100
AcDbEntity
  8
INDUSA
100
AcDbLine
 10
0.02
 20
0.2
 30
0.0
 11
0.060211
 21
0.2
 31
0.0
  0
LINE
  5
ABC
330
AA2
100
AcDbEntity
  8
INDUSA
100
AcDbLine
 10
0.02
 20
0.21
 30
0.0
 11
0.083363
 21
0.21
 31
0.0
  0
ARC
  5
ABD
330
AA2
100
AcDbEntity
  8
INDUSA
100
AcDbCircle
 10
0.072692
 20
0.193954
 30
0.0
 40
0.005
100
AcDbArc
 50
341.413073
 51
80.421122
  0
ARC
  5
ABE
330
AA2
100
AcDbEntity
  8
INDUSA
100
AcDbCircle
 10
0.072692
 20
0.193954
 30
0.0
 40
0.005
100
AcDbArc
 50
341.413073
 51
80.421122
  0
ARC
  5
ABF
330
AA2
100
AcDbEntity
  8
INDUSA
100
AcDbCircle
 10
0.060211
 20
0.12
 30
0.0
 40
0.08
100
AcDbArc
 50
80.421122
 51
90.0
  0
ARC
  5
AC0
330
AA2
100
AcDbEntity
  8
INDUSA
100
AcDbCircle
 10
0.094594
 20
0.196338
 30
0.0
 40
0.005
100
AcDbArc
 50
60.156418
 51
161.413073
  0
LINE
  5
AC1
330
AA2
100
AcDbEntity
  8
INDUSA
100
AcDbLine
 10
0.084713
 20
0.212326
 30
0.0
 11
0.083363
 21
0.21
 31
0.0
  0
ARC
  5
AC2
330
AA2
100
AcDbEntity
  8
INDUSA
100
AcDbCircle
 10
0.092008
 20
0.203711
 30
0.0
 40
0.011288
100
AcDbArc
 50
79.54792600000001
 51
130.256818
  0
LINE
  5
AC3
330
AA2
100
AcDbEntity
  8
INDUSA
100
AcDbLine
 10
0.02
 20
0.41
 30
0.0
 11
0.055
 21
0.41
 31
0.0
  0
ARC
  5
AC4
330
AA2
100
AcDbEntity
  8
INDUSA
100
AcDbCircle
 10
0.019874
 20
0.346982
 30
0.0
 40
0.079279
100
AcDbArc
 50
57.045528
 51
93.538654
  0
LINE
  5
AC5
330
AA2
100
AcDbEntity
  8
INDUSA
100
AcDbLine
 10
0.005
 20
0.4450000000000001
 30
0.0
 11
0.105486
 21
0.4450000000000001
 31
0.0
  0
LINE
  5
AC6
330
AA2
100
AcDbEntity
  8
INDUSA
100
AcDbLine
 10
0.015
 20
0.435
 30
0.0
 11
0.095486
 21
0.435
 31
0.0
  0
LINE
  5
AC7
330
AA2
100
AcDbEntity
  8
INDUSA
100
AcDbLine
 10
0.021
 20
0.34
 30
0.0
 11
0.05349
 21
0.34
 31
0.0
  0
LINE
  5
AC8
330
AA2
100
AcDbEntity
  8
INDUSA
100
AcDbLine
 10
0.02
 20
0.35
 30
0.0
 11
0.055
 21
0.35
 31
0.0
  0
LINE
  5
AC9
330
AA2
100
AcDbEntity
  8
INDUSA
100
AcDbLine
 10
0.02
 20
0.341
 30
0.0
 11
0.02
 21
0.4160000000000001
 31
0.0
  0
ARC
  5
ACA
330
AA2
100
AcDbEntity
  8
INDUSA
100
AcDbCircle
 10
0.021
 20
0.341
 30
0.0
 40
0.001
100
AcDbArc
 50
180.0
 51
270.0
  0
LINE
  5
ACB
330
AA2
100
AcDbEntity
  8
INDUSA
100
AcDbLine
 10
0.002
 20
0.417
 30
0.0
 11
0.019
 21
0.417
 31
0.0
  0
ARC
  5
ACC
330
AA2
100
AcDbEntity
  8
INDUSA
100
AcDbCircle
 10
0.005
 20
0.4400000000000001
 30
0.0
 40
0.005
100
AcDbArc
 50
90.0
 51
180.0
  0
LINE
  5
ACD
330
AA2
100
AcDbEntity
  8
INDUSA
100
AcDbLine
 10
0.0
 20
0.419
 30
0.0
 11
0.0
 21
0.4400000000000001
 31
0.0
  0
ARC
  5
ACE
330
AA2
100
AcDbEntity
  8
INDUSA
100
AcDbCircle
 10
0.002
 20
0.419
 30
0.0
 40
0.002
100
AcDbArc
 50
180.0
 51
270.0
  0
ARC
  5
ACF
330
AA2
100
AcDbEntity
  8
INDUSA
100
AcDbCircle
 10
0.014671
 20
0.4305410000000001
 30
0.0
 40
0.004471
100
AcDbArc
 50
85.780726
 51
176.896092
  0
LINE
  5
AD0
330
AA2
100
AcDbEntity
  8
INDUSA
100
AcDbLine
 10
0.014981
 20
0.42611
 30
0.0
 11
0.024768
 21
0.42611
 31
0.0
  0
ARC
  5
AD1
330
AA2
100
AcDbEntity
  8
INDUSA
100
AcDbCircle
 10
0.019
 20
0.4160000000000001
 30
0.0
 40
0.001
100
AcDbArc
 50
0.0
 51
90.0
  0
ARC
  5
AD2
330
AA2
100
AcDbEntity
  8
INDUSA
100
AcDbCircle
 10
0.01442
 20
0.430312
 30
0.0
 40
0.004239
100
AcDbArc
 50
173.621308
 51
277.605857
  0
LINE
  5
AD3
330
AA2
100
AcDbEntity
  8
INDUSA
100
AcDbLine
 10
0.100486
 20
0.395
 30
0.0
 11
0.100486
 21
0.43
 31
0.0
  0
LINE
  5
AD4
330
AA2
100
AcDbEntity
  8
INDUSA
100
AcDbLine
 10
0.054499
 20
0.340103
 30
0.0
 11
0.095797
 21
0.348608
 31
0.0
  0
LINE
  5
AD5
330
AA2
100
AcDbEntity
  8
INDUSA
100
AcDbLine
 10
0.055
 20
0.35
 30
0.0
 11
0.055
 21
0.354
 31
0.0
  0
ARC
  5
AD6
330
AA2
100
AcDbEntity
  8
INDUSA
100
AcDbCircle
 10
0.05349
 20
0.345
 30
0.0
 40
0.005
100
AcDbArc
 50
270.0
 51
281.63707
  0
LINE
  5
AD7
330
AA2
100
AcDbEntity
  8
INDUSA
100
AcDbLine
 10
0.059
 20
0.354
 30
0.0
 11
0.059
 21
0.359165
 31
0.0
  0
LINE
  5
AD8
330
AA2
100
AcDbEntity
  8
INDUSA
100
AcDbLine
 10
0.055
 20
0.354
 30
0.0
 11
0.059
 21
0.354
 31
0.0
  0
LINE
  5
AD9
330
AA2
100
AcDbEntity
  8
INDUSA
100
AcDbLine
 10
0.063
 20
0.354
 30
0.0
 11
0.063
 21
0.359165
 31
0.0
  0
LINE
  5
ADA
330
AA2
100
AcDbEntity
  8
INDUSA
100
AcDbLine
 10
0.059
 20
0.359165
 30
0.0
 11
0.063
 21
0.359165
 31
0.0
  0
ARC
  5
ADB
330
AA2
100
AcDbEntity
  8
INDUSA
100
AcDbCircle
 10
0.105486
 20
0.395
 30
0.0
 40
0.005
100
AcDbArc
 50
180.0
 51
270.0
  0
LINE
  5
ADC
330
AA2
100
AcDbEntity
  8
INDUSA
100
AcDbLine
 10
0.098831
 20
0.350563
 30
0.0
 11
0.099086
 21
0.350914
 31
0.0
  0
ARC
  5
ADD
330
AA2
100
AcDbEntity
  8
INDUSA
100
AcDbCircle
 10
0.094788
 20
0.353505
 30
0.0
 40
0.005
100
AcDbArc
 50
281.63707
 51
323.962526
  0
ARC
  5
ADE
330
AA2
100
AcDbEntity
  8
INDUSA
100
AcDbCircle
 10
0.103129
 20
0.347972
 30
0.0
 40
0.005
100
AcDbArc
 50
99.96642800000001
 51
143.962526
  0
LINE
  5
ADF
330
AA2
100
AcDbEntity
  8
INDUSA
100
AcDbLine
 10
0.063
 20
0.413505
 30
0.0
 11
0.063
 21
0.400835
 31
0.0
  0
LINE
  5
AE0
330
AA2
100
AcDbEntity
  8
INDUSA
100
AcDbLine
 10
0.059
 20
0.4060000000000001
 30
0.0
 11
0.059
 21
0.400835
 31
0.0
  0
LINE
  5
AE1
330
AA2
100
AcDbEntity
  8
INDUSA
100
AcDbLine
 10
0.055
 20
0.41
 30
0.0
 11
0.055
 21
0.4060000000000001
 31
0.0
  0
LINE
  5
AE2
330
AA2
100
AcDbEntity
  8
INDUSA
100
AcDbLine
 10
0.055
 20
0.4060000000000001
 30
0.0
 11
0.059
 21
0.4060000000000001
 31
0.0
  0
LINE
  5
AE3
330
AA2
100
AcDbEntity
  8
INDUSA
100
AcDbLine
 10
0.059
 20
0.400835
 30
0.0
 11
0.063
 21
0.400835
 31
0.0
  0
LINE
  5
AE4
330
AA2
100
AcDbEntity
  8
INDUSA
100
AcDbLine
 10
0.110486
 20
0.4050000000000001
 30
0.0
 11
0.110486
 21
0.4400000000000001
 31
0.0
  0
ARC
  5
AE5
330
AA2
100
AcDbEntity
  8
INDUSA
100
AcDbCircle
 10
0.115486
 20
0.4050000000000001
 30
0.0
 40
0.005
100
AcDbArc
 50
180.0
 51
270.0
  0
ARC
  5
AE6
330
AA2
100
AcDbEntity
  8
INDUSA
100
AcDbCircle
 10
0.105486
 20
0.4400000000000001
 30
0.0
 40
0.005
100
AcDbArc
 50
0.0
 51
90.0
  0
ARC
  5
AE7
330
AA2
100
AcDbEntity
  8
INDUSA
100
AcDbCircle
 10
0.095486
 20
0.43
 30
0.0
 40
0.005
100
AcDbArc
 50
0.0
 51
90.0
  0
ARC
  5
AE8
330
AA2
100
AcDbEntity
  8
INDUSA
100
AcDbCircle
 10
0.23062
 20
0.190814
 30
0.0
 40
0.109329
100
AcDbArc
 50
234.686777
 51
326.036698
  0
ARC
  5
AE9
330
AA2
100
AcDbEntity
  8
INDUSA
100
AcDbCircle
 10
0.23062
 20
0.190814
 30
0.0
 40
0.099329
100
AcDbArc
 50
242.741559
 51
327.067449
  0
ARC
  5
AEA
330
AA2
100
AcDbEntity
  8
INDUSA
100
AcDbCircle
 10
0.154295
 20
0.305449
 30
0.0
 40
0.010613
100
AcDbArc
 50
256.985658
 51
19.21094
  0
LWPOLYLINE
  5
AEB
330
AA2
100
AcDbEntity
  8
INDUSA
100
AcDbPolyline
 90
        9
 70
     0
 43
0.0
 10
0.154518
 20
0.36
 10
0.163903
 20
0.335476
 10
0.173259
 20
0.31287
 10
0.182512
 20
0.291007
 10
0.19456
 20
0.268711
 10
0.205536
 20
0.244807
 10
0.214032
 20
0.218118
 10
0.222128
 20
0.187471
 10
0.228843
 20
0.155944
  0
LWPOLYLINE
  5
AEC
330
AA2
100
AcDbEntity
  8
INDUSA
100
AcDbPolyline
 90
        6
 70
     0
 43
0.0
 10
0.174283
 20
0.284698
 10
0.185235
 20
0.265094
 10
0.196076
 20
0.241557
 10
0.204428
 20
0.215323
 10
0.212398
 20
0.185151
 10
0.22035
 20
0.148276
  0
ARC
  5
AED
330
AA2
100
AcDbEntity
  8
INDUSA
100
AcDbCircle
 10
0.213666
 20
0.166882
 30
0.0
 40
0.08
100
AcDbArc
 50
201.311342
 51
234.686777
  0
ARC
  5
AEE
330
AA2
100
AcDbEntity
  8
INDUSA
100
AcDbCircle
 10
0.221767
 20
0.173632
 30
0.0
 40
0.08
100
AcDbArc
 50
201.311342
 51
242.741559
  0
LINE
  5
AEF
330
AA2
100
AcDbEntity
  8
INDUSA
100
AcDbLine
 10
0.133749
 20
0.15049
 30
0.0
 11
0.139137
 21
0.137807
 31
0.0
  0
LINE
  5
AF0
330
AA2
100
AcDbEntity
  8
INDUSA
100
AcDbLine
 10
0.144057
 20
0.152709
 30
0.0
 11
0.147237
 21
0.144557
 31
0.0
  0
LINE
  5
AF1
330
AA2
100
AcDbEntity
  8
INDUSA
100
AcDbLine
 10
0.144057
 20
0.152709
 30
0.0
 11
0.147237
 21
0.144557
 31
0.0
  0
ARC
  5
AF2
330
AA2
100
AcDbEntity
  8
INDUSA
100
AcDbCircle
 10
0.154295
 20
0.305449
 30
0.0
 40
0.022353
100
AcDbArc
 50
285.233999
 51
304.154135
  0
ARC
  5
AF3
330
AA2
100
AcDbEntity
  8
INDUSA
100
AcDbCircle
 10
0.169652
 20
0.282813
 30
0.0
 40
0.005
100
AcDbArc
 50
22.147641
 51
124.154135
  0
LINE
  5
AF4
330
AA2
100
AcDbEntity
  8
INDUSA
100
AcDbLine
 10
0.22035
 20
0.148276
 30
0.0
 11
0.225659
 21
0.150203
 31
0.0
  0
ARC
  5
AF5
330
AA2
100
AcDbEntity
  8
INDUSA
100
AcDbCircle
 10
0.223953
 20
0.154903
 30
0.0
 40
0.005
100
AcDbArc
 50
289.95129
 51
12.023437
  0
ARC
  5
AF6
330
AA2
100
AcDbEntity
  8
INDUSA
100
AcDbCircle
 10
0.159518
 20
0.38
 30
0.0
 40
0.02
100
AcDbArc
 50
360.0
 51
90.0
  0
LINE
  5
AF7
330
AA2
100
AcDbEntity
  8
INDUSA
100
AcDbLine
 10
0.139966
 20
0.37
 30
0.0
 11
0.15805
 21
0.37
 31
0.0
  0
ARC
  5
AF8
330
AA2
100
AcDbEntity
  8
INDUSA
100
AcDbCircle
 10
0.159518
 20
0.38
 30
0.0
 40
0.01
100
AcDbArc
 50
360.0
 51
90.0
  0
LINE
  5
AF9
330
AA2
100
AcDbEntity
  8
INDUSA
100
AcDbLine
 10
0.15805
 20
0.36
 30
0.0
 11
0.167087
 21
0.36
 31
0.0
  0
LWPOLYLINE
  5
AFA
330
AA2
100
AcDbEntity
  8
INDUSA
100
AcDbPolyline
 90
        3
 70
     0
 43
0.0
 10
0.146688
 20
0.352494
 10
0.154657
 20
0.331741
 10
0.164321
 20
0.308943
  0
LINE
  5
AFB
330
AA2
100
AcDbEntity
  8
INDUSA
100
AcDbLine
 10
0.154518
 20
0.36
 30
0.0
 11
0.15805
 21
0.36
 31
0.0
  0
LINE
  5
AFC
330
AA2
100
AcDbEntity
  8
INDUSA
100
AcDbLine
 10
0.15805
 20
0.37
 30
0.0
 11
0.15805
 21
0.36
 31
0.0
  0
ARC
  5
AFD
330
AA2
100
AcDbEntity
  8
INDUSA
100
AcDbCircle
 10
0.137352
 20
0.34891
 30
0.0
 40
0.01
100
AcDbArc
 50
21.00675
 51
99.96642800000001
  0
LINE
  5
AFE
330
AA2
100
AcDbEntity
  8
INDUSA
100
AcDbLine
 10
0.167087
 20
0.37
 30
0.0
 11
0.167087
 21
0.36
 31
0.0
  0
LINE
  5
AFF
330
AA2
100
AcDbEntity
  8
INDUSA
100
AcDbLine
 10
0.179518
 20
0.38
 30
0.0
 11
0.179518
 21
0.36
 31
0.0
  0
LINE
  5
B00
330
AA2
100
AcDbEntity
  8
INDUSA
100
AcDbLine
 10
0.169518
 20
0.38
 30
0.0
 11
0.169518
 21
0.37
 31
0.0
  0
ARC
  5
B01
330
AA2
100
AcDbEntity
  8
INDUSA
100
AcDbCircle
 10
0.7077010000000001
 20
-0.014893
 30
0.0
 40
0.370056
100
AcDbArc
 50
146.168811
 51
158.338394
  0
LINE
  5
B02
330
AA2
100
AcDbEntity
  8
INDUSA
100
AcDbLine
 10
0.288122
 20
0.097829
 30
0.0
 11
0.367086
 21
0.109567
 31
0.0
  0
ARC
  5
B03
330
AA2
100
AcDbEntity
  8
INDUSA
100
AcDbCircle
 10
0.32903
 20
0.131557
 30
0.0
 40
0.005
100
AcDbArc
 50
14.215609
 51
143.851716
  0
ARC
  5
B04
330
AA2
100
AcDbEntity
  8
INDUSA
100
AcDbCircle
 10
0.238939
 20
0.197368
 30
0.0
 40
0.096432
100
AcDbArc
 50
321.100837
 51
336.202398
  0
ARC
  5
B05
330
AA2
100
AcDbEntity
  8
INDUSA
100
AcDbCircle
 10
0.238939
 20
0.197368
 30
0.0
 40
0.106568
100
AcDbArc
 50
320.607051
 51
323.851716
  0
ARC
  5
B06
330
AA2
100
AcDbEntity
  8
INDUSA
100
AcDbCircle
 10
0.344487
 20
0.111262
 30
0.0
 40
0.005
100
AcDbArc
 50
194.215609
 51
278.455028
  0
ARC
  5
B07
330
AA2
100
AcDbEntity
  8
INDUSA
100
AcDbCircle
 10
0.359132
 20
0.123549
 30
0.0
 40
0.005
100
AcDbArc
 50
278.455028
 51
338.338394
  0
LINE
  5
B08
330
AA2
100
AcDbEntity
  8
INDUSA
100
AcDbLine
 10
0.33964
 20
0.110035
 30
0.0
 11
0.333877
 21
0.132784
 31
0.0
  0
ARC
  5
B09
330
AA2
100
AcDbEntity
  8
INDUSA
100
AcDbCircle
 10
0.35196
 20
0.122483
 30
0.0
 40
0.005
100
AcDbArc
 50
194.215609
 51
278.455028
  0
LINE
  5
B0A
330
AA2
100
AcDbEntity
  8
INDUSA
100
AcDbLine
 10
0.359867
 20
0.118604
 30
0.0
 11
0.352695
 21
0.117538
 31
0.0
  0
LINE
  5
B0B
330
AA2
100
AcDbEntity
  8
INDUSA
100
AcDbLine
 10
0.347113
 20
0.121255
 30
0.0
 11
0.337959
 21
0.157391
 31
0.0
  0
ARC
  5
B0C
330
AA2
100
AcDbEntity
  8
INDUSA
100
AcDbCircle
 10
0.7077010000000001
 20
-0.014893
 30
0.0
 40
0.360056
100
AcDbArc
 50
146.168811
 51
159.238358
  0
ARC
  5
B0D
330
AA2
100
AcDbEntity
  8
INDUSA
100
AcDbCircle
 10
0.366351
 20
0.114512
 30
0.0
 40
0.005
100
AcDbArc
 50
278.455028
 51
339.238358
  0
ARC
  5
B0E
330
AA2
100
AcDbEntity
  8
INDUSA
100
AcDbCircle
 10
0.533
 20
0.36
 30
0.0
 40
0.03
100
AcDbArc
 50
90.0
 51
143.130102
  0
LINE
  5
B0F
330
AA2
100
AcDbEntity
  8
INDUSA
100
AcDbLine
 10
0.518461
 20
0.37
 30
0.0
 11
0.526661
 21
0.37
 31
0.0
  0
ARC
  5
B10
330
AA2
100
AcDbEntity
  8
INDUSA
100
AcDbCircle
 10
0.533
 20
0.36
 30
0.0
 40
0.04
100
AcDbArc
 50
90.0
 51
180.0
  0
LINE
  5
B11
330
AA2
100
AcDbEntity
  8
INDUSA
100
AcDbLine
 10
0.518461
 20
0.37
 30
0.0
 11
0.513
 21
0.37
 31
0.0
  0
LINE
  5
B12
330
AA2
100
AcDbEntity
  8
INDUSA
100
AcDbLine
 10
0.513
 20
0.37
 30
0.0
 11
0.511756
 21
0.37
 31
0.0
  0
ARC
  5
B13
330
AA2
100
AcDbEntity
  8
INDUSA
100
AcDbCircle
 10
0.513
 20
0.375
 30
0.0
 40
0.005
100
AcDbArc
 50
143.130102
 51
270.0
  0
ARC
  5
B14
330
AA2
100
AcDbEntity
  8
INDUSA
100
AcDbCircle
 10
0.5550000000000001
 20
0.395
 30
0.0
 40
0.005
100
AcDbArc
 50
324.20436
 51
90.0
  0
ARC
  5
B15
330
AA2
100
AcDbEntity
  8
INDUSA
100
AcDbCircle
 10
3.119939
 20
-1.631648
 30
0.0
 40
3.273982
100
AcDbArc
 50
142.046448
 51
142.267719
  0
LINE
  5
B16
330
AA2
100
AcDbEntity
  8
INDUSA
100
AcDbLine
 10
0.533
 20
0.39
 30
0.0
 11
0.53443
 21
0.39
 31
0.0
  0
ARC
  5
B17
330
AA2
100
AcDbEntity
  8
INDUSA
100
AcDbCircle
 10
0.53443
 20
0.385
 30
0.0
 40
0.005
100
AcDbArc
 50
322.046448
 51
90.0
  0
ARC
  5
B18
330
AA2
100
AcDbEntity
  8
INDUSA
100
AcDbCircle
 10
0.526661
 20
0.375
 30
0.0
 40
0.005
100
AcDbArc
 50
270.0
 51
322.267719
  0
LINE
  5
B19
330
AA2
100
AcDbEntity
  8
INDUSA
100
AcDbLine
 10
0.167087
 20
0.36
 30
0.0
 11
0.513
 21
0.36
 31
0.0
  0
LINE
  5
B1A
330
AA2
100
AcDbEntity
  8
INDUSA
100
AcDbLine
 10
0.167087
 20
0.37
 30
0.0
 11
0.169518
 21
0.37
 31
0.0
  0
ENDBLK
  5
B1C
330
AA2
100
AcDbEntity
  8
0
100
AcDbBlockEnd
  0
ENDSEC
  0
SECTION
  2
ENTITIES
  0
LWPOLYLINE
  5
590
330
1F
100
AcDbEntity
  8
INDUSA
  6
Continuous
100
AcDbPolyline
 90
        2
 70
   128
 43
0.0
 10
415.9125531274607
 20
364.1033350375831
 10
415.9019600603601
 20
364.1573201771404
  0
LWPOLYLINE
  5
592
330
1F
100
AcDbEntity
  8
INDUSA
  6
Continuous
100
AcDbPolyline
 90
        2
 70
   128
 43
0.0
 10
416.1076134051969
 20
364.1033350375839
 10
416.1182064722971
 20
364.1573201771412
  0
LINE
  5
593
330
1F
100
AcDbEntity
  8
INDUSA
100
AcDbLine
 10
415.9549501439289
 20
364.339127587942
 30
0.0
 11
416.065216388727
 21
364.3391275879424
 31
0.0
  0
LWPOLYLINE
  5
594
330
1F
100
AcDbEntity
  8
INDUSA
  6
Continuous
100
AcDbPolyline
 90
        5
 70
   128
 43
0.0
 10
416.1875122116889
 20
364.3391275919325
 10
416.1897781711894
 20
364.3386105416647
 10
416.1915732246842
 20
364.3371644434362
 10
416.1925307384484
 20
364.3350867528721
 10
416.1924536181232
 20
364.3328077907759
  0
LWPOLYLINE
  5
595
330
1F
100
AcDbEntity
  8
INDUSA
  6
Continuous
100
AcDbPolyline
 90
       16
 70
   128
 43
0.0
 10
416.0533054219681
 20
364.25050520437
 10
416.0533054740222
 20
364.2505052342079
 10
416.0537296346032
 20
364.2506993388017
 10
416.0542808260636
 20
364.2508003443717
 10
416.054570780706
 20
364.2507825209355
 10
416.0553271444863
 20
364.2504994237957
 10
416.0566169981165
 20
364.2492206983569
 10
416.0576022321824
 20
364.2475877691234
 10
416.0587940026211
 20
364.2449274993835
 10
416.0597705175209
 20
364.2421911436835
 10
416.0614171558323
 20
364.2366315491006
 10
416.0639012499093
 20
364.2265064720543
 10
416.0658267763221
 20
364.2167052074749
 10
416.067125323673
 20
364.2073467791153
 10
416.0677243295553
 20
364.1982992450359
 10
416.0677243304307
 20
364.1982992080519
  0
LWPOLYLINE
  5
598
330
1F
100
AcDbEntity
  8
INDUSA
  6
Continuous
100
AcDbPolyline
 90
       11
 70
   128
 43
0.0
 10
416.1587122522202
 20
364.2541275879431
 10
416.1540447959226
 20
364.2456550047423
 10
416.14867906942
 20
364.2368302572487
 10
416.1425573454279
 20
364.2277308174158
 10
416.1356241101131
 20
364.2184451696325
 10
416.1278288297853
 20
364.2090718216854
 10
416.1191289038436
 20
364.1997176334898
 10
416.1094926752022
 20
364.1904954427197
 10
416.0989023430802
 20
364.1815210402461
 10
416.0873566132276
 20
364.172909637209
 10
416.0787676910154
 20
364.1673108855668
  0
LINE
  5
599
330
1F
100
AcDbEntity
  8
INDUSA
  6
Continuous
100
AcDbLine
 10
416.0675656328084
 20
363.9831637274292
 30
0.0
 11
416.0100832663292
 21
363.9831637274287
 31
0.0
  0
LWPOLYLINE
  5
59A
330
1F
100
AcDbEntity
  8
INDUSA
  6
Continuous
100
AcDbPolyline
 90
        6
 70
   128
 43
0.0
 10
416.010083266332
 20
363.9908918108087
 10
416.013677223932
 20
363.9908916315185
 10
416.0245180976601
 20
363.990873778015
 10
416.0353493724673
 20
363.9908293793862
 10
416.04299742309
 20
363.9907829723814
 10
416.0506018362187
 20
363.9907266323718
  0
LWPOLYLINE
  5
59F
330
1F
100
AcDbEntity
  8
INDUSA
  6
Continuous
100
AcDbPolyline
 90
        4
 70
   128
 43
0.0
 10
416.1077934686188
 20
364.1042526895604
 10
416.1076398511429
 20
364.1033108426074
 10
416.0979860748882
 20
364.0509422046694
 10
416.0870786623084
 20
363.9988202211542
  0
LWPOLYLINE
  5
5A1
330
1F
100
AcDbEntity
  8
INDUSA
  6
Continuous
100
AcDbPolyline
 90
        7
 70
   128
 43
0.0
 10
416.0693241850319
 20
364.0297888231469
 10
416.0689348895643
 20
364.0558545911089
 10
416.0685944670076
 20
364.0827581287304
 10
416.0683030586023
 20
364.1104768941221
 10
416.0680608055894
 20
364.1389883453943
 10
416.0678678492098
 20
364.1682699406577
 10
416.0677243307043
 20
364.1982991380228
  0
LWPOLYLINE
  5
5A3
330
1F
100
AcDbEntity
  8
INDUSA
  6
Continuous
100
AcDbPolyline
 90
       12
 70
   128
 43
0.0
 10
416.0506018362187
 20
363.9907266323718
 10
416.0534055872013
 20
363.9909276594905
 10
416.0561538964759
 20
363.9915199529557
 10
416.0587924186453
 20
363.9924918006855
 10
416.0612689792555
 20
363.9938239852464
 10
416.0635346065005
 20
363.9954901638609
 10
416.065544499595
 20
363.9974573893137
 10
416.0672589146723
 20
363.9996867614526
 10
416.0686439506829
 20
364.0021341964054
 10
416.0696722197587
 20
364.0047512983003
 10
416.0703233887838
 20
364.0074863162503
 10
416.0705845814637
 20
364.0102851676827
  0
LWPOLYLINE
  5
5A6
330
1F
100
AcDbEntity
  8
INDUSA
  6
Continuous
100
AcDbPolyline
 90
        9
 70
   128
 43
0.0
 10
416.0870786623084
 20
363.9988202211542
 10
416.0860733821942
 20
363.9956070542809
 10
416.0845466341469
 20
363.992606388695
 10
416.0825344330792
 20
363.9899069479477
 10
416.0801002654511
 20
363.9875808465213
 10
416.0773089617996
 20
363.9857005230663
 10
416.0742433228588
 20
363.9843116729927
 10
416.0723240047891
 20
363.9837381616438
 10
416.0675656328084
 20
363.9831637274292
  0
LWPOLYLINE
  5
5B9
330
1F
100
AcDbEntity
  8
INDUSA
  6
Continuous
100
AcDbPolyline
 90
        9
 70
   128
 43
0.0
 10
416.0705845814637
 20
364.0102851676827
 10
416.0703690287552
 20
364.0107787868857
 10
416.0701674783011
 20
364.0118139676352
 10
416.0699760673604
 20
364.01344830816
 10
416.0698030315963
 20
364.0156478506885
 10
416.0696523545198
 20
364.0183528764391
 10
416.0695223640256
 20
364.0215749297632
 10
416.069410992931
 20
364.025432307754
 10
416.0693241850319
 20
364.0297888231469
  0
LWPOLYLINE
  5
5BF
330
1F
100
AcDbEntity
  8
INDUSA
  6
Continuous
100
AcDbPolyline
 90
        4
 70
   128
 43
0.0
 10
416.1257399314459
 20
364.2068258315106
 10
416.1247665014194
 20
364.1995836688756
 10
416.1219068322167
 20
364.1797810808543
 10
416.1203018865337
 20
364.1693909480951
  0
LWPOLYLINE
  5
5C1
330
1F
100
AcDbEntity
  8
INDUSA
  6
Continuous
100
AcDbPolyline
 90
        4
 70
   128
 43
0.0
 10
416.1182064722971
 20
364.1573201771412
 10
416.118985447254
 20
364.1614788533501
 10
416.1197133726474
 20
364.1656450856053
 10
416.1202866739401
 20
364.1692109863563
  0
LWPOLYLINE
  5
5C5
330
1F
100
AcDbEntity
  8
INDUSA
  6
Continuous
100
AcDbPolyline
 90
       18
 70
   128
 43
0.0
 10
416.0677245678751
 20
364.1982992364152
 10
416.067977633888
 20
364.192328587858
 10
416.0682560728286
 20
364.1869913111023
 10
416.0685577533058
 20
364.1822935430207
 10
416.068889977255
 20
364.1781178481013
 10
416.0692420738419
 20
364.1745419228988
 10
416.0696105950332
 20
364.1715056320682
 10
416.0702143071968
 20
364.1676235344961
 10
416.0708427839454
 20
364.1646215909684
 10
416.0714905130096
 20
364.1623457095369
 10
416.0721519821201
 20
364.1606417982532
 10
416.0728390345647
 20
364.159426694784
 10
416.07354115915
 20
364.1588571164054
 10
416.0742592339661
 20
364.1590507831232
 10
416.0749941371033
 20
364.1601254149429
 10
416.0754888133586
 20
364.16138960382
 10
416.0759916743151
 20
364.1631443255226
 10
416.076421921525
 20
364.1649950883436
  0
LWPOLYLINE
  5
5C8
330
1F
100
AcDbEntity
  8
INDUSA
  6
Continuous
100
AcDbPolyline
 90
        6
 70
   128
 43
0.0
 10
416.0787892756123
 20
364.1671853794515
 10
416.0786370147162
 20
364.1671009176355
 10
416.0777221586419
 20
364.1664111350298
 10
416.077005813285
 20
364.1657161047924
 10
416.0765009055768
 20
364.1651088164601
 10
416.076421921525
 20
364.1649950883436
  0
LWPOLYLINE
  5
5C9
330
1F
100
AcDbEntity
  8
INDUSA
  6
Continuous
100
AcDbPolyline
 90
       11
 70
   128
 43
0.0
 10
416.0100832663279
 20
364.345081833865
 10
416.0248003568975
 20
364.3449453335628
 10
416.0467716260354
 20
364.3444138660979
 10
416.06873683664
 20
364.3434837586939
 10
416.0742233143815
 20
364.3431880405642
 10
416.0961549713395
 20
364.3417416196395
 10
416.1082015203819
 20
364.3407429663791
 10
416.1131337214361
 20
364.3402709137226
 10
416.1180580433047
 20
364.3397160342538
 10
416.1202212221051
 20
364.3393992681547
 10
416.1218156866551
 20
364.3391275879428
  0
LINE
  5
5CB
330
1F
100
AcDbEntity
  8
INDUSA
  6
Continuous
100
AcDbLine
 10
416.065216388727
 20
364.3391275879424
 30
0.0
 11
416.1875262438289
 21
364.3391275879433
 31
0.0
  0
LWPOLYLINE
  5
5CD
330
1F
100
AcDbEntity
  8
INDUSA
  6
Continuous
100
AcDbPolyline
 90
        7
 70
   128
 43
0.0
 10
416.1923441214711
 20
364.3328035183681
 10
416.188485734385
 20
364.3197775636448
 10
416.1837446747047
 20
364.306094445959
 10
416.1783809304418
 20
364.2926497322283
 10
416.1724047450046
 20
364.2794834522589
 10
416.1658302890848
 20
364.2666316476783
 10
416.1586797144356
 20
364.2541275879431
  0
LWPOLYLINE
  5
5D3
330
1F
100
AcDbEntity
  8
INDUSA
  6
Continuous
100
AcDbPolyline
 90
        5
 70
   128
 43
0.0
 10
415.8326543211008
 20
364.3391275879419
 10
415.8303883616119
 20
364.3386105376231
 10
415.8285933081497
 20
364.3371644393542
 10
415.8276357944322
 20
364.3350867487685
 10
415.8277129148086
 20
364.3328077866741
  0
LWPOLYLINE
  5
5D4
330
1F
100
AcDbEntity
  8
INDUSA
  6
Continuous
100
AcDbPolyline
 90
        7
 70
   128
 43
0.0
 10
415.8278224111848
 20
364.3328035183667
 10
415.8316807982709
 20
364.3197775636435
 10
415.8364218579514
 20
364.3060944459577
 10
415.8417856022143
 20
364.2926497322271
 10
415.8477617876517
 20
364.2794834522577
 10
415.8543362435715
 20
364.2666316476771
 10
415.8614868182208
 20
364.2541275879419
  0
LINE
  5
5D6
330
1F
100
AcDbEntity
  8
INDUSA
  6
Continuous
100
AcDbLine
 10
415.9549501439289
 20
364.339127587942
 30
0.0
 11
415.8326402888269
 21
364.339127587942
 31
0.0
  0
LWPOLYLINE
  5
5D8
330
1F
100
AcDbEntity
  8
INDUSA
  6
Continuous
100
AcDbPolyline
 90
       11
 70
   128
 43
0.0
 10
416.0100832663279
 20
364.345081833865
 10
415.9953661757582
 20
364.3449453335627
 10
415.9733949066204
 20
364.3444138660976
 10
415.9514296960158
 20
364.3434837586934
 10
415.9459432182743
 20
364.3431880405637
 10
415.9240115613163
 20
364.3417416196389
 10
415.911965012274
 20
364.3407429663783
 10
415.9070328112197
 20
364.3402709137219
 10
415.9021084893511
 20
364.339716034253
 10
415.8999453105507
 20
364.3393992681538
 10
415.8983508460006
 20
364.3391275879419
  0
LWPOLYLINE
  5
5D9
330
1F
100
AcDbEntity
  8
INDUSA
  6
Continuous
100
AcDbPolyline
 90
        6
 70
   128
 43
0.0
 10
415.9413772570448
 20
364.167185379451
 10
415.9415295179409
 20
364.167100917635
 10
415.9424443740152
 20
364.1664111350292
 10
415.9431607193722
 20
364.1657161047919
 10
415.9436656270804
 20
364.1651088164596
 10
415.9437446111322
 20
364.1649950883431
  0
LWPOLYLINE
  5
5DC
330
1F
100
AcDbEntity
  8
INDUSA
  6
Continuous
100
AcDbPolyline
 90
       18
 70
   128
 43
0.0
 10
415.9524419647818
 20
364.1982992364148
 10
415.952188898769
 20
364.1923285878576
 10
415.9519104598284
 20
364.1869913111019
 10
415.9516087793512
 20
364.1822935430202
 10
415.9512765554021
 20
364.1781178481008
 10
415.9509244588151
 20
364.1745419228984
 10
415.9505559376238
 20
364.1715056320677
 10
415.9499522254604
 20
364.1676235344956
 10
415.9493237487118
 20
364.164621590968
 10
415.9486760196475
 20
364.1623457095364
 10
415.9480145505371
 20
364.1606417982527
 10
415.9473274980926
 20
364.1594266947835
 10
415.9466253735073
 20
364.1588571164049
 10
415.945907298691
 20
364.1590507831227
 10
415.9451723955539
 20
364.1601254149424
 10
415.9446777192985
 20
364.1613896038196
 10
415.9441748583421
 20
364.1631443255221
 10
415.9437446111322
 20
364.1649950883431
  0
LWPOLYLINE
  5
5E0
330
1F
100
AcDbEntity
  8
INDUSA
  6
Continuous
100
AcDbPolyline
 90
        4
 70
   128
 43
0.0
 10
415.9019600603601
 20
364.1573201771404
 10
415.9011810854032
 20
364.1614788533492
 10
415.9004531600097
 20
364.1656450856045
 10
415.8998798587171
 20
364.1692109863555
  0
LWPOLYLINE
  5
5E2
330
1F
100
AcDbEntity
  8
INDUSA
  6
Continuous
100
AcDbPolyline
 90
        4
 70
   128
 43
0.0
 10
415.8944266012109
 20
364.2068258315097
 10
415.8954000312376
 20
364.1995836688747
 10
415.8982597004404
 20
364.1797810808534
 10
415.8998646461235
 20
364.1693909480942
  0
LWPOLYLINE
  5
5E8
330
1F
100
AcDbEntity
  8
INDUSA
  6
Continuous
100
AcDbPolyline
 90
        9
 70
   128
 43
0.0
 10
415.9495819511946
 20
364.0102851676823
 10
415.9497975039031
 20
364.0107787868852
 10
415.9499990543572
 20
364.0118139676348
 10
415.9501904652979
 20
364.0134483081596
 10
415.950363501062
 20
364.0156478506881
 10
415.9505141781385
 20
364.0183528764386
 10
415.9506441686326
 20
364.0215749297628
 10
415.9507555397271
 20
364.0254323077536
 10
415.9508423476262
 20
364.0297888231465
  0
LWPOLYLINE
  5
5FB
330
1F
100
AcDbEntity
  8
INDUSA
  6
Continuous
100
AcDbPolyline
 90
        9
 70
   128
 43
0.0
 10
415.9330878703499
 20
363.9988202211537
 10
415.9340931504642
 20
363.9956070542803
 10
415.9356198985115
 20
363.9926063886944
 10
415.9376320995793
 20
363.9899069479471
 10
415.9400662672074
 20
363.9875808465208
 10
415.9428575708589
 20
363.9857005230659
 10
415.9459232097998
 20
363.9843116729922
 10
415.9478425278694
 20
363.9837381616433
 10
415.9526008998502
 20
363.9831637274287
  0
LWPOLYLINE
  5
5FE
330
1F
100
AcDbEntity
  8
INDUSA
  6
Continuous
100
AcDbPolyline
 90
       12
 70
   128
 43
0.0
 10
415.9695646964398
 20
363.9907266323715
 10
415.9667609454571
 20
363.9909276594902
 10
415.9640126361826
 20
363.9915199529554
 10
415.9613741140132
 20
363.9924918006851
 10
415.9588975534028
 20
363.993823985246
 10
415.956631926158
 20
363.9954901638605
 10
415.9546220330634
 20
363.9974573893133
 10
415.9529076179861
 20
363.9996867614521
 10
415.9515225819754
 20
364.002134196405
 10
415.9504943128996
 20
364.0047512982998
 10
415.9498431438745
 20
364.0074863162499
 10
415.9495819511946
 20
364.0102851676823
  0
LWPOLYLINE
  5
600
330
1F
100
AcDbEntity
  8
INDUSA
  6
Continuous
100
AcDbPolyline
 90
        7
 70
   128
 43
0.0
 10
415.9508423476262
 20
364.0297888231464
 10
415.9512316430936
 20
364.0558545911084
 10
415.9515720656503
 20
364.0827581287299
 10
415.9518634740552
 20
364.1104768941216
 10
415.9521057270679
 20
364.1389883453939
 10
415.9522986834472
 20
364.1682699406573
 10
415.9524422019526
 20
364.1982991380223
  0
LWPOLYLINE
  5
602
330
1F
100
AcDbEntity
  8
INDUSA
  6
Continuous
100
AcDbPolyline
 90
        4
 70
   128
 43
0.0
 10
415.9123730640388
 20
364.1042526895597
 10
415.9125266815147
 20
364.1033108426067
 10
415.9221804577698
 20
364.0509422046687
 10
415.9330878703499
 20
363.9988202211537
  0
LINE
  5
605
330
1F
100
AcDbEntity
  8
INDUSA
  6
Continuous
100
AcDbLine
 10
415.9526008998502
 20
363.9831631182557
 30
0.0
 11
416.0100832663293
 21
363.9831631182557
 31
0.0
  0
LWPOLYLINE
  5
607
330
1F
100
AcDbEntity
  8
INDUSA
  6
Continuous
100
AcDbPolyline
 90
        6
 70
   128
 43
0.0
 10
416.0100832663265
 20
363.9908918108087
 10
416.0064893087264
 20
363.9908916315184
 10
415.9956484349983
 20
363.9908737780148
 10
415.9848171601912
 20
363.9908293793861
 10
415.9771691095685
 20
363.9907829723812
 10
415.9695646964398
 20
363.9907266323715
  0
LWPOLYLINE
  5
609
330
1F
100
AcDbEntity
  8
INDUSA
  6
Continuous
100
AcDbPolyline
 90
       11
 70
   128
 43
0.0
 10
415.8614542804363
 20
364.2541275879419
 10
415.8661217367339
 20
364.2456550047412
 10
415.8714874632365
 20
364.2368302572477
 10
415.8776091872288
 20
364.2277308174148
 10
415.8845424225437
 20
364.2184451696315
 10
415.8923377028716
 20
364.2090718216846
 10
415.9010376288133
 20
364.199717633489
 10
415.9106738574548
 20
364.1904954427189
 10
415.9212641895769
 20
364.1815210402455
 10
415.9328099194295
 20
364.1729096372084
 10
415.9413988416416
 20
364.1673108855663
  0
LWPOLYLINE
  5
60C
330
1F
100
AcDbEntity
  8
INDUSA
  6
Continuous
100
AcDbPolyline
 90
       16
 70
   128
 43
0.0
 10
415.9668611106885
 20
364.2505052043697
 10
415.9668610586344
 20
364.2505052342075
 10
415.9664368980533
 20
364.2506993388013
 10
415.9658857065929
 20
364.2508003443713
 10
415.9655957519505
 20
364.2507825209352
 10
415.9648393881703
 20
364.2504994237953
 10
415.96354953454
 20
364.2492206983565
 10
415.9625643004742
 20
364.2475877691231
 10
415.9613725300355
 20
364.2449274993831
 10
415.9603960151357
 20
364.2421911436831
 10
415.9587493768243
 20
364.2366315491003
 10
415.9562652827474
 20
364.2265064720539
 10
415.9543397563346
 20
364.2167052074745
 10
415.9530412089838
 20
364.2073467791149
 10
415.9524422031016
 20
364.1982992450355
 10
415.9524422022262
 20
364.1982992080514
  0
ARC
  5
621
330
1F
100
AcDbEntity
  8
INDUSA
100
AcDbCircle
 10
415.2721640735048
 20
364.1432342365848
 30
0.0
 40
0.0273159113921712
100
AcDbArc
 50
145.3125862244915
 51
173.1934322726006
  0
ARC
  5
622
330
1F
100
AcDbEntity
  8
INDUSA
100
AcDbCircle
 10
415.4641848362888
 20
364.143041741861
 30
0.0
 40
0.0269723833804689
100
AcDbArc
 50
7.306024208028842
 51
31.05915834904727
  0
LINE
  5
623
330
1F
100
AcDbEntity
  8
INDUSA
100
AcDbLine
 10
415.2533605922436
 20
364.3841835523909
 30
0.0
 11
415.2433868876231
 21
364.3841835523909
 31
0.0
  0
LINE
  5
624
330
1F
100
AcDbEntity
  8
INDUSA
100
AcDbLine
 10
415.4850197352896
 20
364.3841835523909
 30
0.0
 11
415.4925877893131
 21
364.3841835523909
 31
0.0
  0
LWPOLYLINE
  5
625
330
1F
100
AcDbEntity
  8
INDUSA
  6
Continuous
100
AcDbPolyline
 90
        5
 70
   128
 43
0.0
 10
415.4098275092207
 20
363.9142744932242
 10
415.4046199680726
 20
363.9119479058349
 10
415.399333230105
 20
363.9097918825997
 10
415.3953747559214
 20
363.9083085974851
 10
415.3953746994528
 20
363.9083085773446
  0
LWPOLYLINE
  5
626
330
1F
100
AcDbEntity
  8
INDUSA
  6
Continuous
100
AcDbPolyline
 90
        5
 70
   128
 43
0.0
 10
415.3261455063432
 20
363.9142744932242
 10
415.3313530474913
 20
363.9119479058349
 10
415.3366397854588
 20
363.9097918825997
 10
415.3405982596425
 20
363.9083085974851
 10
415.3405983161111
 20
363.9083085773446
  0
LWPOLYLINE
  5
62B
330
1F
100
AcDbEntity
  8
INDUSA
  6
Continuous
100
AcDbPolyline
 90
       39
 70
   128
 43
0.0
 10
415.5221281409049
 20
364.2719914891813
 10
415.5257762570322
 20
364.2575934359312
 10
415.5296889062832
 20
364.2419308490825
 10
415.5330928370309
 20
364.2274996786363
 10
415.5359644345491
 20
364.2143580800207
 10
415.5383653728099
 20
364.202519788284
 10
415.5403516805277
 20
364.1919972799227
 10
415.5419736669413
 20
364.1828017578764
 10
415.5434113248295
 20
364.1740964797336
 10
415.5447199940411
 20
364.165617670943
 10
415.5459497947912
 20
364.1570549131042
 10
415.5470979105161
 20
364.1484080870743
 10
415.5481682787555
 20
364.139677118095
 10
415.5499530111091
 20
364.1197225069638
 10
415.5505165211359
 20
364.0995819487238
 10
415.5498239543919
 20
364.079421828376
 10
415.5478579931014
 20
364.0592409649244
 10
415.5455166622609
 20
364.0440298008535
 10
415.5424651007572
 20
364.0290383537016
 10
415.538710417417
 20
364.0142660202469
 10
415.5343226500783
 20
363.9999181141329
 10
415.5294574105592
 20
363.9863516470632
 10
415.523979561745
 20
363.9735547317651
 10
415.5214436059875
 20
363.968335902519
 10
415.5188256160808
 20
363.9633084245583
 10
415.5159153231331
 20
363.9580851137747
 10
415.5123702917995
 20
363.9521654425533
 10
415.5081133011703
 20
363.9456012970617
 10
415.5030585293959
 20
363.9384547190768
 10
415.49710869988
 20
363.9307960264499
 10
415.4910819881117
 20
363.9237370174063
 10
415.4842020312663
 20
363.9164073336349
 10
415.4764077574088
 20
363.9089070658178
 10
415.4677215952483
 20
363.9014133536158
 10
415.460092893396
 20
363.8954889741239
 10
415.4518219909649
 20
363.8896821574234
 10
415.4428704989475
 20
363.884048474227
 10
415.4331962090971
 20
363.8786492211405
 10
415.4252247966058
 20
363.8747448586486
  0
LWPOLYLINE
  5
62C
330
1F
100
AcDbEntity
  8
INDUSA
  6
Continuous
100
AcDbPolyline
 90
       41
 70
   128
 43
0.0
 10
415.3107558162335
 20
363.8747598114108
 10
415.3004037254095
 20
363.8799108351873
 10
415.2888800902489
 20
363.8866256046938
 10
415.2785478972407
 20
363.893548801126
 10
415.2693171610085
 20
363.9005501841293
 10
415.2611072535695
 20
363.9075133595216
 10
415.2538450591659
 20
363.9143326413963
 10
415.2475144890793
 20
363.920855964432
 10
415.2420708894235
 20
363.9269591909001
 10
415.2374264231727
 20
363.932578924676
 10
415.2334908520825
 20
363.9376787789534
 10
415.2298474522002
 20
363.9427130428772
 10
415.2263307985852
 20
363.9478961878278
 10
415.2229445814644
 20
363.9532308719271
 10
415.2196931565157
 20
363.9587202280902
 10
415.2126607301808
 20
363.9721449801256
 10
415.2065615194597
 20
363.9862340470543
 10
415.2014191733695
 20
364.0006170419133
 10
415.1970028255899
 20
364.0151991643304
 10
415.1932892041166
 20
364.0300011929755
 10
415.1902803663899
 20
364.0450240021282
 10
415.1879839078764
 20
364.0602675314895
 10
415.1864244715461
 20
364.0755798866268
 10
415.1856006902473
 20
364.0908813939275
 10
415.1855001715033
 20
364.1060105019872
 10
415.1860669341492
 20
364.1205002701605
 10
415.1872133048648
 20
364.1343218275184
 10
415.1878316918915
 20
364.1399075725908
 10
415.1884909391267
 20
364.1453560594759
 10
415.1891994666043
 20
364.1509235839083
 10
415.1900642933161
 20
364.1573513632541
 10
415.1911141274494
 20
364.1646820426397
 10
415.192373731292
 20
364.1729145606078
 10
415.1938703399734
 20
364.1820447610603
 10
415.1956315867206
 20
364.1920550824922
 10
415.1977948436471
 20
364.2034766044961
 10
415.2003224409845
 20
364.2158457374898
 10
415.2032565788702
 20
364.2291530835031
 10
415.2066425371404
 20
364.2433892271302
 10
415.210423970688
 20
364.2584967040913
 10
415.2138446314031
 20
364.271991570791
  0
LWPOLYLINE
  5
630
330
1F
100
AcDbEntity
  8
INDUSA
  6
Continuous
100
AcDbPolyline
 90
        3
 70
   128
 43
0.0
 10
415.2138400207124
 20
364.2719928931175
 10
415.2271283399952
 20
364.3233316738565
 10
415.2433868876231
 20
364.3841835523909
  0
LWPOLYLINE
  5
634
330
1F
100
AcDbEntity
  8
INDUSA
  6
Continuous
100
AcDbPolyline
 90
        3
 70
   128
 43
0.0
 10
415.4925877893131
 20
364.3841835523909
 10
415.5059718615651
 20
364.334247645837
 10
415.5221324777108
 20
364.271992906046
  0
LINE
  5
635
330
1F
100
AcDbEntity
  8
INDUSA
  6
Continuous
100
AcDbLine
 10
415.4850197352896
 20
364.3841835523909
 30
0.0
 11
415.3679865077819
 21
364.3841835523909
 31
0.0
  0
LINE
  5
636
330
1F
100
AcDbEntity
  8
INDUSA
  6
Continuous
100
AcDbLine
 10
415.2533605922436
 20
364.3841835523909
 30
0.0
 11
415.3679865077819
 21
364.3841835523909
 31
0.0
  0
LWPOLYLINE
  5
637
330
1F
100
AcDbEntity
  8
INDUSA
  6
Continuous
100
AcDbPolyline
 90
        5
 70
   128
 43
0.0
 10
415.4143133333993
 20
364.1486320397171
 10
415.4156180711199
 20
364.1476041544517
 10
415.4167642846446
 20
364.1463365593536
 10
415.4176557443953
 20
364.1449356659501
 10
415.4178659188908
 20
364.1444360512916
  0
LWPOLYLINE
  5
638
330
1F
100
AcDbEntity
  8
INDUSA
  6
Continuous
100
AcDbPolyline
 90
        5
 70
   128
 43
0.0
 10
415.3216596821646
 20
364.1486320397171
 10
415.320354944444
 20
364.1476041544517
 10
415.3192087309193
 20
364.1463365593536
 10
415.3183172711686
 20
364.1449356659501
 10
415.3181070966731
 20
364.1444360512916
  0
LWPOLYLINE
  5
639
330
1F
100
AcDbEntity
  8
INDUSA
  6
Continuous
100
AcDbPolyline
 90
        6
 70
   128
 43
0.0
 10
415.4174812156578
 20
364.1190859233188
 10
415.4175630239573
 20
364.1248119632106
 10
415.4176408154801
 20
364.130529596803
 10
415.4177291117953
 20
364.1365839099277
 10
415.4178428043438
 20
364.1432605128094
 10
415.4178659188908
 20
364.1444360512916
  0
LWPOLYLINE
  5
63A
330
1F
100
AcDbEntity
  8
INDUSA
  6
Continuous
100
AcDbPolyline
 90
        6
 70
   128
 43
0.0
 10
415.3184917999061
 20
364.1190859233188
 10
415.3184099916066
 20
364.1248119632106
 10
415.3183322000838
 20
364.130529596803
 10
415.3182439037685
 20
364.1365839099277
 10
415.3181302112201
 20
364.1432605128094
 10
415.3181070966731
 20
364.1444360512916
  0
LWPOLYLINE
  5
63D
330
1F
100
AcDbEntity
  8
INDUSA
  6
Continuous
100
AcDbPolyline
 90
       18
 70
   128
 43
0.0
 10
415.368773726216
 20
364.2319317918988
 10
415.3796731912311
 20
364.2312524665672
 10
415.3905431525339
 20
364.2299810191785
 10
415.4012832472728
 20
364.2279795207522
 10
415.4117931125961
 20
364.2251100423083
 10
415.42323682146
 20
364.2208660973909
 10
415.4343237047889
 20
364.2156579105373
 10
415.4449334966832
 20
364.2095387548281
 10
415.4549459312431
 20
364.2025619033434
 10
415.4645495518971
 20
364.1945124224629
 10
415.4734408356597
 20
364.1856145232578
 10
415.4815399117019
 20
364.1759856464138
 10
415.4887669091943
 20
364.1657432326163
 10
415.4936342736967
 20
364.157594348863
 10
415.4981559320889
 20
364.1485129425269
 10
415.5019779477383
 20
364.1390877316825
 10
415.5051654336615
 20
364.1294170373835
 10
415.5077835028749
 20
364.1195991806834
  0
LWPOLYLINE
  5
63E
330
1F
100
AcDbEntity
  8
INDUSA
  6
Continuous
100
AcDbPolyline
 90
       18
 70
   128
 43
0.0
 10
415.3671992893479
 20
364.2319317918988
 10
415.3562998243328
 20
364.2312524665672
 10
415.3454298630299
 20
364.2299810191785
 10
415.3346897682911
 20
364.2279795207522
 10
415.3241799029678
 20
364.2251100423083
 10
415.3127361941039
 20
364.2208660973909
 10
415.3016493107749
 20
364.2156579105373
 10
415.2910395188806
 20
364.2095387548281
 10
415.2810270843207
 20
364.2025619033434
 10
415.2714234636668
 20
364.1945124224629
 10
415.2625321799042
 20
364.1856145232578
 10
415.254433103862
 20
364.1759856464138
 10
415.2472061063695
 20
364.1657432326163
 10
415.2423387418672
 20
364.157594348863
 10
415.237817083475
 20
364.1485129425269
 10
415.2339950678256
 20
364.1390877316825
 10
415.2308075819024
 20
364.1294170373835
 10
415.2281895126889
 20
364.1195991806834
  0
LWPOLYLINE
  5
641
330
1F
100
AcDbEntity
  8
INDUSA
  6
Continuous
100
AcDbPolyline
 90
       33
 70
   128
 43
0.0
 10
415.4104637951498
 20
363.9381510910437
 10
415.4117157907367
 20
363.9387096161028
 10
415.4166459740395
 20
363.9411166724262
 10
415.4212806003677
 20
363.9436768105063
 10
415.426020047554
 20
363.946631855864
 10
415.4307151239679
 20
363.9499231408433
 10
415.4352623423196
 20
363.9534918355749
 10
415.4396414135518
 20
363.9573260840118
 10
415.4438313707798
 20
363.9614114098336
 10
415.4478136189217
 20
363.9657326763285
 10
415.4515908459849
 20
363.9702787301104
 10
415.4552610858319
 20
363.975165536428
 10
415.4587967097357
 20
363.980372744907
 10
415.4621901708627
 20
363.9859033468211
 10
415.4654318499348
 20
363.9917574304584
 10
415.4685056818787
 20
363.9979271492383
 10
415.4713601833392
 20
364.0043372850972
 10
415.4740422186736
 20
364.0110575124406
 10
415.4766784474737
 20
364.0183952726868
 10
415.4793302769912
 20
364.0265412640236
 10
415.4820871556399
 20
364.0358335731173
 10
415.4846997717402
 20
364.0457449355029
 10
415.4869227623001
 20
364.0554488311707
 10
415.4887917138238
 20
364.0650486992681
 10
415.4903109382306
 20
364.0745359695705
 10
415.4914851772485
 20
364.0839032563623
 10
415.4923195495229
 20
364.0931448118402
 10
415.4928193640938
 20
364.1022563479037
 10
415.4929837587173
 20
364.1112368211866
 10
415.4928408011439
 20
364.1199927506146
 10
415.4924078854292
 20
364.1292162191605
 10
415.4916688929203
 20
364.1391112186768
 10
415.490938232972
 20
364.14647179013
  0
LWPOLYLINE
  5
642
330
1F
100
AcDbEntity
  8
INDUSA
  6
Continuous
100
AcDbPolyline
 90
       33
 70
   128
 43
0.0
 10
415.2450406865924
 20
364.1464716580251
 10
415.2445038712176
 20
364.1413308646681
 10
415.2436844599584
 20
364.1310858612527
 10
415.2431908249608
 20
364.1216760234683
 10
415.2429945984758
 20
364.1129072288578
 10
415.2430768494856
 20
364.1046509918683
 10
415.2434673958725
 20
364.0959121276531
 10
415.2441631037832
 20
364.0870929062592
 10
415.2451822346905
 20
364.0780580457272
 10
415.246522546801
 20
364.0689147861161
 10
415.2481882557049
 20
364.059667244856
 10
415.2501832070091
 20
364.0503219611244
 10
415.2525108180757
 20
364.0408869715678
 10
415.2551738941695
 20
364.0313719795701
 10
415.2581624384907
 20
364.0217797453356
 10
415.2608654980217
 20
364.0139321514761
 10
415.2635576742055
 20
364.0068957158417
 10
415.2662964577664
 20
364.0004702023493
 10
415.269164818294
 20
363.9944369222806
 10
415.2724681054588
 20
363.9882049308672
 10
415.2760250594115
 20
363.9821864644134
 10
415.2797376594315
 20
363.976548528729
 10
415.2835925646982
 20
363.9712889370601
 10
415.2875798294403
 20
363.9664007440771
 10
415.2916909629105
 20
363.9618777453585
 10
415.2958955308118
 20
363.9577312552875
 10
415.3002928149462
 20
363.9538400995458
 10
415.3048757914511
 20
363.950208019153
 10
415.309623215366
 20
363.946850801689
 10
415.3145137869811
 20
363.9437818664299
 10
415.3195244052287
 20
363.9410147527503
 10
415.3246171320867
 20
363.9385430814559
 10
415.3255069148683
 20
363.9381459153536
  0
LWPOLYLINE
  5
643
330
1F
100
AcDbEntity
  8
INDUSA
  6
Continuous
100
AcDbPolyline
 90
        3
 70
   128
 43
0.0
 10
415.3817304316646
 20
364.1631031942149
 10
415.3888566731591
 20
364.1613987455965
 10
415.3944092521946
 20
364.1595579280278
  0
LWPOLYLINE
  5
645
330
1F
100
AcDbEntity
  8
INDUSA
  6
Continuous
100
AcDbPolyline
 90
       18
 70
   128
 43
0.0
 10
415.4850698279063
 20
364.1606817331529
 10
415.4813923830082
 20
364.1665108106853
 10
415.4745131253803
 20
364.1756889770347
 10
415.4669079054152
 20
364.1842761256703
 10
415.4625496504277
 20
364.1885973958693
 10
415.4579908740798
 20
364.1927254260129
 10
415.4490138227489
 20
364.1998610491494
 10
415.4394075708373
 20
364.2062695340121
 10
415.4394761729909
 20
364.2062277824251
 10
415.4294400885751
 20
364.2117761768314
 10
415.423875777509
 20
364.2143953821285
 10
415.4181879178652
 20
364.2167669334518
 10
415.4107062278411
 20
364.2194559725802
 10
415.401609436989
 20
364.2221210416833
 10
415.3923037544823
 20
364.2241503092214
 10
415.3829476080479
 20
364.225399313679
 10
415.3729806572729
 20
364.2260425517325
 10
415.3687561979959
 20
364.2262198693816
  0
CIRCLE
  5
646
330
1F
100
AcDbEntity
  8
INDUSA
  6
Continuous
100
AcDbCircle
 10
415.447986507782
 20
364.2941835523909
 30
0.0
 40
0.007
  0
LINE
  5
648
330
1F
100
AcDbEntity
  8
INDUSA
  6
Continuous
100
AcDbLine
 10
415.4872903256245
 20
364.1569574102883
 30
0.0
 11
415.4850698279063
 21
364.1606817331529
 31
0.0
  0
LWPOLYLINE
  5
64B
330
1F
100
AcDbEntity
  8
INDUSA
  6
Continuous
100
AcDbPolyline
 90
        4
 70
   128
 43
0.0
 10
415.3944092521946
 20
364.1595579280278
 10
415.3995854798276
 20
364.1574109835088
 10
415.4045691752555
 20
364.1548952838405
 10
415.4119832080132
 20
364.1502030325328
  0
LINE
  5
64C
330
1F
100
AcDbEntity
  8
INDUSA
  6
Continuous
100
AcDbLine
 10
415.4119832080132
 20
364.1502030325329
 30
0.0
 11
415.4125615048831
 21
364.1497905537578
 31
0.0
  0
LINE
  5
64D
330
1F
100
AcDbEntity
  8
INDUSA
  6
Continuous
100
AcDbLine
 10
415.4132884041685
 20
364.1493098428774
 30
0.0
 11
415.4125615048831
 21
364.1497905537578
 31
0.0
  0
LINE
  5
64E
330
1F
100
AcDbEntity
  8
INDUSA
  6
Continuous
100
AcDbLine
 10
415.4143133333993
 20
364.1486320397171
 30
0.0
 11
415.4132884041685
 21
364.1493098428774
 31
0.0
  0
CIRCLE
  5
651
330
1F
100
AcDbEntity
  8
INDUSA
  6
Continuous
100
AcDbCircle
 10
415.2879865077819
 20
364.2941835523909
 30
0.0
 40
0.007
  0
LWPOLYLINE
  5
654
330
1F
100
AcDbEntity
  8
INDUSA
  6
Continuous
100
AcDbPolyline
 90
       14
 70
   128
 43
0.0
 10
415.2497030442999
 20
364.1587796919413
 10
415.254677780993
 20
364.1666662644502
 10
415.2617179087313
 20
364.1760056463196
 10
415.269509617689
 20
364.1847258276773
 10
415.2779821414841
 20
364.1927254260129
 10
415.2871163348744
 20
364.1999665244572
 10
415.2968660819571
 20
364.2064316882247
 10
415.3071245978568
 20
364.212054097746
 10
415.3177850976987
 20
364.2167669334518
 10
415.3252667877228
 20
364.2194559725802
 10
415.3376037371051
 20
364.222805233836
 10
415.3502390605058
 20
364.2249618363841
 10
415.362992358291
 20
364.2260425517325
 10
415.367216817568
 20
364.2262198693816
  0
LWPOLYLINE
  5
655
330
1F
100
AcDbEntity
  8
INDUSA
  6
Continuous
100
AcDbPolyline
 90
        9
 70
   128
 43
0.0
 10
415.3671992893479
 20
364.2319317918988
 10
415.3673960272146
 20
364.2319385622043
 10
415.3675928222868
 20
364.2319433986054
 10
415.3677896554988
 20
364.2319463006334
 10
415.3679865077819
 20
364.2319472680074
 10
415.368183360065
 20
364.2319463006334
 10
415.3683801932771
 20
364.2319433986054
 10
415.3685769883493
 20
364.2319385622043
 10
415.368773726216
 20
364.2319317918988
  0
LWPOLYLINE
  5
657
330
1F
100
AcDbEntity
  8
INDUSA
  6
Continuous
100
AcDbPolyline
 90
        3
 70
   128
 43
0.0
 10
415.3542425838993
 20
364.1631031942149
 10
415.3471163424048
 20
364.1613987455965
 10
415.3415637633693
 20
364.1595579280278
  0
LWPOLYLINE
  5
65D
330
1F
100
AcDbEntity
  8
INDUSA
  6
Continuous
100
AcDbPolyline
 90
        4
 70
   128
 43
0.0
 10
415.3679865077819
 20
364.1643218597583
 10
415.3720918689591
 20
364.1641528366454
 10
415.3760335939156
 20
364.1638741954889
 10
415.3817304316646
 20
364.1631031942149
  0
LWPOLYLINE
  5
65E
330
1F
100
AcDbEntity
  8
INDUSA
  6
Continuous
100
AcDbPolyline
 90
        4
 70
   128
 43
0.0
 10
415.3679865077819
 20
364.1643218597583
 10
415.3638811466048
 20
364.1641528366454
 10
415.3599394216483
 20
364.1638741954889
 10
415.3542425838993
 20
364.1631031942149
  0
LWPOLYLINE
  5
661
330
1F
100
AcDbEntity
  8
INDUSA
  6
Continuous
100
AcDbPolyline
 90
        4
 70
   128
 43
0.0
 10
415.3415637633693
 20
364.1595579280278
 10
415.3363875357363
 20
364.1574109835088
 10
415.3314038403084
 20
364.1548952838405
 10
415.3239898075506
 20
364.1502030325328
  0
LWPOLYLINE
  5
662
330
1F
100
AcDbEntity
  8
INDUSA
  6
Continuous
100
AcDbPolyline
 90
        3
 70
   128
 43
0.0
 10
415.3239840916186
 20
364.1501988636581
 10
415.3236963915571
 20
364.1499969021846
 10
415.3234072724114
 20
364.149796957662
  0
LINE
  5
663
330
1F
100
AcDbEntity
  8
INDUSA
  6
Continuous
100
AcDbLine
 10
415.3226846113954
 20
364.1493098428774
 30
0.0
 11
415.3234115106807
 21
364.1497905537578
 31
0.0
  0
LINE
  5
664
330
1F
100
AcDbEntity
  8
INDUSA
  6
Continuous
100
AcDbLine
 10
415.3216596821646
 20
364.1486320397171
 30
0.0
 11
415.3226846113954
 21
364.1493098428774
 31
0.0
  0
LWPOLYLINE
  5
667
330
1F
100
AcDbEntity
  8
INDUSA
  6
Continuous
100
AcDbPolyline
 90
        6
 70
   128
 43
0.0
 10
415.3679865077819
 20
364.1047457750614
 10
415.3754706802779
 20
364.1048208970699
 10
415.3829557808068
 20
364.1050483460211
 10
415.390446637212
 20
364.1054283437437
 10
415.3979288414381
 20
364.1059613991785
 10
415.3994736773602
 20
364.1060907694296
  0
LWPOLYLINE
  5
668
330
1F
100
AcDbEntity
  8
INDUSA
  6
Continuous
100
AcDbPolyline
 90
       10
 70
   128
 43
0.0
 10
415.3679796846222
 20
363.9279969301589
 10
415.3736971218151
 20
363.9283143436066
 10
415.3792487098924
 20
363.9288561441328
 10
415.3842218380746
 20
363.9295943897683
 10
415.3888863882333
 20
363.9305603830309
 10
415.3937450686795
 20
363.931870180247
 10
415.3987533812692
 20
363.933504981695
 10
415.4042349844951
 20
363.9355636385278
 10
415.4104570576781
 20
363.9381468911582
 10
415.4104643446578
 20
363.9381500949503
  0
LWPOLYLINE
  5
669
330
1F
100
AcDbEntity
  8
INDUSA
  6
Continuous
100
AcDbPolyline
 90
        9
 70
   128
 43
0.0
 10
415.4159551666665
 20
363.9797343847188
 10
415.4160573792216
 20
363.9954029207484
 10
415.4161845634282
 20
364.0115776313931
 10
415.4163366181432
 20
364.0282303616352
 10
415.4165143983371
 20
364.0454294640197
 10
415.4167173097901
 20
364.0630950740937
 10
415.4169464360988
 20
364.0812998577502
 10
415.4172009361678
 20
364.0999576900933
 10
415.4174812156578
 20
364.1190859233188
  0
LWPOLYLINE
  5
66B
330
1F
100
AcDbEntity
  8
INDUSA
  6
Continuous
100
AcDbPolyline
 90
       18
 70
   128
 43
0.0
 10
415.5097095337736
 20
364.1055131621647
 10
415.5095207514722
 20
364.0906070070203
 10
415.5085489096709
 20
364.0757105270878
 10
415.5067942871585
 20
364.0608863843774
 10
415.5042571627234
 20
364.046197240899
 10
415.501202154877
 20
364.0325326972822
 10
415.4974622009659
 20
364.0189903420991
 10
415.4929415729124
 20
364.0056947365315
 10
415.4875445426394
 20
363.9927704417616
 10
415.4811753820693
 20
363.9803420189715
 10
415.474141122026
 20
363.969059226083
 10
415.4661790331799
 20
363.958354024279
 10
415.4573677833489
 20
363.9483380142018
 10
415.4477860403516
 20
363.9391227964931
 10
415.4372229707995
 20
363.9305741280535
 10
415.4284671513742
 20
363.9245314108218
 10
415.4193164959114
 20
363.91908220682
 10
415.4098273635425
 20
363.914274288868
  0
LWPOLYLINE
  5
670
330
1F
100
AcDbEntity
  8
INDUSA
  6
Continuous
100
AcDbPolyline
 90
        5
 70
   128
 43
0.0
 10
415.5081487573188
 20
364.1179770672154
 10
415.5088505499332
 20
364.1141201986234
 10
415.5093671671134
 20
364.110278638387
 10
415.5094507394368
 20
364.1094836468318
 10
415.5094507453461
 20
364.109483587478
  0
LWPOLYLINE
  5
671
330
1F
100
AcDbEntity
  8
INDUSA
  6
Continuous
100
AcDbPolyline
 90
        6
 70
   128
 43
0.0
 10
415.5077851411748
 20
364.1195935849779
 10
415.5077851552328
 20
364.119593526803
 10
415.5078806390902
 20
364.1191915357857
 10
415.5080181566743
 20
364.1185859554065
 10
415.5081488139707
 20
364.1179767563002
 10
415.5081488261938
 20
364.1179766976912
  0
LWPOLYLINE
  5
672
330
1F
100
AcDbEntity
  8
INDUSA
  6
Continuous
100
AcDbPolyline
 90
        6
 70
   128
 43
0.0
 10
415.5095021693456
 20
364.1092034021164
 10
415.5095254573986
 20
364.1089110629277
 10
415.5095860196586
 20
364.108062792857
 10
415.5096366138352
 20
364.1072137072921
 10
415.5096776321748
 20
364.1063637130224
 10
415.5097095337736
 20
364.1055131621647
  0
LWPOLYLINE
  5
673
330
1F
100
AcDbEntity
  8
INDUSA
  6
Continuous
100
AcDbPolyline
 90
        9
 70
   128
 43
0.0
 10
415.5094507435586
 20
364.1094835842667
 10
415.5094648881377
 20
364.109381709964
 10
415.5094751920562
 20
364.1093143467283
 10
415.5094828321566
 20
364.1092700255468
 10
415.5094886121476
 20
364.1092411306986
 10
415.5094955332006
 20
364.1092145243427
 10
415.5094986480337
 20
364.1092068656722
 10
415.5095012244053
 20
364.1092036396921
 10
415.5095021693456
 20
364.1092034021164
  0
LWPOLYLINE
  5
674
330
1F
100
AcDbEntity
  8
INDUSA
  6
Continuous
100
AcDbPolyline
 90
        9
 70
   128
 43
0.0
 10
415.3994736775938
 20
364.1060907694497
 10
415.4027905348089
 20
364.1064873796066
 10
415.4061083485256
 20
364.1073105858857
 10
415.4092546227778
 20
364.1085730459538
 10
415.4120507257419
 20
364.1102430818789
 10
415.4143420713719
 20
364.1122444071942
 10
415.4160252652967
 20
364.1144671365973
 10
415.4170627975181
 20
364.1167869691067
 10
415.4174812156578
 20
364.1190859233188
  0
LWPOLYLINE
  5
675
330
1F
100
AcDbEntity
  8
INDUSA
  6
Continuous
100
AcDbPolyline
 90
        5
 70
   128
 43
0.0
 10
415.4177418144475
 20
363.9417220076916
 10
415.4169505148991
 20
363.9491587558794
 10
415.416282139319
 20
363.9588555379534
 10
415.4159414912716
 20
363.9690699437909
 10
415.4159551666665
 20
363.9797343847188
  0
LWPOLYLINE
  5
678
330
1F
100
AcDbEntity
  8
INDUSA
  6
Continuous
100
AcDbPolyline
 90
        9
 70
   128
 43
0.0
 10
415.3200178488974
 20
363.9797343847188
 10
415.3199156048464
 20
363.9954071849741
 10
415.3197885655786
 20
364.0115643943053
 10
415.3196363516805
 20
364.0282349655533
 10
415.3194591914449
 20
364.0453769434803
 10
415.3192556441741
 20
364.0631000967506
 10
415.3190267836068
 20
364.0812843826779
 10
415.3187720033184
 20
364.0999630368397
 10
415.3184917999061
 20
364.1190859233188
  0
LWPOLYLINE
  5
67A
330
1F
100
AcDbEntity
  8
INDUSA
  6
Continuous
100
AcDbPolyline
 90
       18
 70
   128
 43
0.0
 10
415.2262634817902
 20
364.1055131621647
 10
415.2264522640917
 20
364.0906070070203
 10
415.227424105893
 20
364.0757105270878
 10
415.2291787284054
 20
364.0608863843774
 10
415.2317158528405
 20
364.046197240899
 10
415.2347708606868
 20
364.0325326972822
 10
415.238510814598
 20
364.0189903420991
 10
415.2430314426514
 20
364.0056947365315
 10
415.2484284729244
 20
363.9927704417616
 10
415.2547976334946
 20
363.9803420189715
 10
415.2618318935379
 20
363.969059226083
 10
415.269793982384
 20
363.958354024279
 10
415.2786052322149
 20
363.9483380142018
 10
415.2881869752123
 20
363.9391227964931
 10
415.2987500447643
 20
363.9305741280535
 10
415.3075058641897
 20
363.9245314108218
 10
415.3166565196525
 20
363.91908220682
 10
415.3261456520214
 20
363.914274288868
  0
LWPOLYLINE
  5
67B
330
1F
100
AcDbEntity
  8
INDUSA
  6
Continuous
100
AcDbPolyline
 90
        6
 70
   128
 43
0.0
 10
415.3679865077819
 20
364.1047457750614
 10
415.3605023352859
 20
364.1048208970699
 10
415.353017234757
 20
364.1050483460211
 10
415.3455263783519
 20
364.1054283437437
 10
415.3380441741257
 20
364.1059613991785
 10
415.3364993382036
 20
364.1060907694296
  0
LWPOLYLINE
  5
67C
330
1F
100
AcDbEntity
  8
INDUSA
  6
Continuous
100
AcDbPolyline
 90
        9
 70
   128
 43
0.0
 10
415.33649933797
 20
364.1060907694497
 10
415.3331824807549
 20
364.1064873796066
 10
415.3298646670383
 20
364.1073105858857
 10
415.326718392786
 20
364.1085730459538
 10
415.323922289822
 20
364.1102430818789
 10
415.321630944192
 20
364.1122444071942
 10
415.3199477502671
 20
364.1144671365973
 10
415.3189102180458
 20
364.1167869691067
 10
415.3184917999061
 20
364.1190859233188
  0
LWPOLYLINE
  5
67D
330
1F
100
AcDbEntity
  8
INDUSA
  6
Continuous
100
AcDbPolyline
 90
        5
 70
   128
 43
0.0
 10
415.227824258245
 20
364.1179770672154
 10
415.2271224656307
 20
364.1141201986234
 10
415.2266058484505
 20
364.110278638387
 10
415.2265222761271
 20
364.1094836468318
 10
415.2265222702178
 20
364.109483587478
  0
LWPOLYLINE
  5
67E
330
1F
100
AcDbEntity
  8
INDUSA
  6
Continuous
100
AcDbPolyline
 90
        6
 70
   128
 43
0.0
 10
415.2281878743891
 20
364.1195935849779
 10
415.2281878603311
 20
364.119593526803
 10
415.2280923764737
 20
364.1191915357857
 10
415.2279548588896
 20
364.1185859554065
 10
415.2278242015932
 20
364.1179767563002
 10
415.2278241893701
 20
364.1179766976912
  0
LWPOLYLINE
  5
680
330
1F
100
AcDbEntity
  8
INDUSA
  6
Continuous
100
AcDbPolyline
 90
        6
 70
   128
 43
0.0
 10
415.2264708462182
 20
364.1092034021164
 10
415.2264475581653
 20
364.1089110629277
 10
415.2263869959053
 20
364.108062792857
 10
415.2263364017286
 20
364.1072137072921
 10
415.226295383389
 20
364.1063637130224
 10
415.2262634817902
 20
364.1055131621647
  0
LWPOLYLINE
  5
682
330
1F
100
AcDbEntity
  8
INDUSA
  6
Continuous
100
AcDbPolyline
 90
        5
 70
   128
 43
0.0
 10
415.3182318962613
 20
363.9417285407637
 10
415.3190225006648
 20
363.9491587558794
 10
415.3196908762449
 20
363.9588555379534
 10
415.3200315242923
 20
363.9690699437909
 10
415.3200178488974
 20
363.9797343847188
  0
LWPOLYLINE
  5
683
330
1F
100
AcDbEntity
  8
INDUSA
  6
Continuous
100
AcDbPolyline
 90
       10
 70
   128
 43
0.0
 10
415.3255180233087
 20
363.9381724352006
 10
415.3296308771828
 20
363.936414484217
 10
415.3355282114487
 20
363.9341133808851
 10
415.340804789101
 20
363.9323074619165
 10
415.3456408570453
 20
363.9309190366375
 10
415.3502860658595
 20
363.9298667496935
 10
415.3552431104357
 20
363.9290481094477
 10
415.3604702768681
 20
363.9284625151961
 10
415.3663110285273
 20
363.9280641548036
 10
415.3679910676472
 20
363.9280061705082
  0
LWPOLYLINE
  5
687
330
1F
100
AcDbEntity
  8
INDUSA
  6
Continuous
100
AcDbPolyline
 90
        6
 70
   128
 43
0.0
 10
415.3953746994528
 20
363.9083085773446
 10
415.3953746433502
 20
363.9083085562167
 10
415.3902145768482
 20
363.9066771908812
 10
415.3849287591007
 20
363.9053781495688
 10
415.3765463499267
 20
363.9040355248755
 10
415.367986507782
 20
363.9035299193732
  0
LWPOLYLINE
  5
689
330
1F
100
AcDbEntity
  8
INDUSA
  6
Continuous
100
AcDbPolyline
 90
        8
 70
   128
 43
0.0
 10
415.4252442961405
 20
363.8747042058204
 10
415.415263785459
 20
363.8703283772223
 10
415.4054035456093
 20
363.8666087485207
 10
415.3955563019041
 20
363.8637549464455
 10
415.3882873916283
 20
363.8622287670743
 10
415.3812034672378
 20
363.8611938332761
 10
415.3743155473105
 20
363.8606040521995
 10
415.3676425334865
 20
363.8604177129689
  0
LWPOLYLINE
  5
68A
330
1F
100
AcDbEntity
  8
INDUSA
  6
Continuous
100
AcDbPolyline
 90
        6
 70
   128
 43
0.0
 10
415.3405983161111
 20
363.9083085773446
 10
415.3405983722136
 20
363.9083085562167
 10
415.3457584387157
 20
363.9066771908812
 10
415.3510442564632
 20
363.9053781495688
 10
415.3594266656372
 20
363.9040355248755
 10
415.3679865077819
 20
363.9035299193732
  0
LWPOLYLINE
  5
68C
330
1F
100
AcDbEntity
  8
INDUSA
  6
Continuous
100
AcDbPolyline
 90
        9
 70
   128
 43
0.0
 10
415.3683304820773
 20
363.8604177129689
 10
415.3632971225072
 20
363.8605233783541
 10
415.3575671179054
 20
363.8609052364787
 10
415.3511647475541
 20
363.8616655840995
 10
415.344100301175
 20
363.8629217440594
 10
415.3364281859697
 20
363.8647989013167
 10
415.3282422019816
 20
363.8674229259141
 10
415.3197224821196
 20
363.8707338052451
 10
415.3107287194234
 20
363.8747042058204
  0
LINE
  5
6BA
330
1F
100
AcDbEntity
  8
INDUSA
100
AcDbLine
 10
417.3776713038338
 20
364.2894952304402
 30
0.0
 11
417.3876713038338
 21
364.2894952304402
 31
0.0
  0
LINE
  5
6BB
330
1F
100
AcDbEntity
  8
INDUSA
100
AcDbLine
 10
417.7184377308591
 20
364.2894952304402
 30
0.0
 11
417.7284377308591
 21
364.2894952304402
 31
0.0
  0
LWPOLYLINE
  5
6BD
330
1F
100
AcDbEntity
  8
INDUSA
  6
Continuous
100
AcDbPolyline
 90
       17
 70
   128
 43
0.0
 10
417.3776713038338
 20
364.2894952304402
 10
417.3743284059156
 20
364.2894952304402
 42
0.4876500521880255
 10
417.3733580457008
 20
364.2882535673412
 10
417.3770349207832
 20
364.2734896529963
 10
417.3819681558667
 20
364.2577054030969
 10
417.3878184242943
 20
364.2422221357874
 10
417.3945556290625
 20
364.2271195061131
 10
417.4021496731675
 20
364.2124771691193
 10
417.4064709626453
 20
364.204802022242
 10
417.4110869375923
 20
364.1973025064028
 10
417.4163016970888
 20
364.1902396259579
 10
417.4207789647679
 20
364.1854358566874
 10
417.4257801626461
 20
364.1811480131366
 10
417.4312112374384
 20
364.1774567325349
 10
417.4365516967167
 20
364.174623190453
 10
417.4421703095335
 20
364.1723476388875
 10
417.4479774454223
 20
364.1706663774158
  0
LWPOLYLINE
  5
6BE
330
1F
100
AcDbEntity
  8
INDUSA
  6
Continuous
100
AcDbPolyline
 90
        2
 70
   128
 43
0.0
 10
417.3776713038338
 20
364.2994952304402
 10
417.3750974893684
 20
364.2994952304402
  0
LINE
  5
6BF
330
1F
100
AcDbEntity
  8
INDUSA
  6
Continuous
100
AcDbLine
 10
417.7184377308591
 20
364.2994952304402
 30
0.0
 11
417.7172175741302
 21
364.2994952304402
 31
0.0
  0
LWPOLYLINE
  5
6C0
330
1F
100
AcDbEntity
  8
INDUSA
  6
Continuous
100
AcDbPolyline
 90
       15
 70
   128
 43
0.0
 10
417.7284377308591
 20
364.2894952304402
 10
417.7310662343739
 20
364.2894952304402
 42
-0.5825117752241106
 10
417.7319244317717
 20
364.2879819106312
 10
417.7214086366563
 20
364.2704010032789
 10
417.7096263213853
 20
364.2515276078733
 10
417.6974688887222
 20
364.2328550304175
 10
417.6849575211468
 20
364.2144177330955
 10
417.6670482637849
 20
364.189277456047
 10
417.6484801068684
 20
364.1646198369785
 10
417.6292101831891
 20
364.1403953800133
 10
417.6093032662506
 20
364.1166916121481
 10
417.5889392035684
 20
364.0937086814353
 10
417.5679756092002
 20
364.0712712647556
 10
417.5463654443706
 20
364.0493348870724
 10
417.5241818815996
 20
364.0279785451341
  0
LINE
  5
6C1
330
1F
100
AcDbEntity
  8
INDUSA
100
AcDbLine
 10
417.7284377308591
 20
364.2994952304402
 30
0.0
 11
417.7284377308591
 21
364.2894952304402
 31
0.0
  0
LINE
  5
6C2
330
1F
100
AcDbEntity
  8
INDUSA
100
AcDbLine
 10
417.7184377308591
 20
364.2994952304402
 30
0.0
 11
417.7184377308591
 21
364.2894952304402
 31
0.0
  0
LINE
  5
6C3
330
1F
100
AcDbEntity
  8
INDUSA
100
AcDbLine
 10
417.3776713038338
 20
364.2994952304402
 30
0.0
 11
417.3776713038338
 21
364.2894952304402
 31
0.0
  0
LINE
  5
6C4
330
1F
100
AcDbEntity
  8
INDUSA
100
AcDbLine
 10
417.3876713038338
 20
364.2994952304402
 30
0.0
 11
417.3876713038338
 21
364.2894952304402
 31
0.0
  0
ARC
  5
6C6
330
1F
100
AcDbEntity
  8
INDUSA
  6
Continuous
100
AcDbCircle
 10
417.7535045131499
 20
364.3284952304402
 30
0.0
 40
0.001
100
AcDbArc
 50
331.0667610222116
 51
90.00000000000651
  0
ARC
  5
6C7
330
1F
100
AcDbEntity
  8
INDUSA
  6
Continuous
100
AcDbCircle
 10
417.7330527533301
 20
364.3284952304402
 30
0.0
 40
0.001
100
AcDbArc
 50
90.00000000000651
 51
150.510012412818
  0
ARC
  5
6C8
330
1F
100
AcDbEntity
  8
INDUSA
  6
Continuous
100
AcDbCircle
 10
417.7380264822804
 20
364.3004952304402
 30
0.0
 40
0.001
100
AcDbArc
 50
270.0
 51
331.0667610222116
  0
ARC
  5
6C9
330
1F
100
AcDbEntity
  8
INDUSA
  6
Continuous
100
AcDbCircle
 10
417.7172175741302
 20
364.3004952304402
 30
0.0
 40
0.001
100
AcDbArc
 50
150.510012412818
 51
270.0
  0
ARC
  5
6CA
330
1F
100
AcDbEntity
  8
INDUSA
  6
Continuous
100
AcDbCircle
 10
417.3688369242011
 20
364.2695117437154
 30
0.0
 40
0.001
100
AcDbArc
 50
270.0
 51
14.29676327984441
  0
ARC
  5
6CB
330
1F
100
AcDbEntity
  8
INDUSA
  6
Continuous
100
AcDbCircle
 10
417.3017451989766
 20
364.3284952304402
 30
0.0
 40
0.001
100
AcDbArc
 50
90.0
 51
180.0
  0
LINE
  5
6CE
330
1F
100
AcDbEntity
  8
INDUSA
  6
Continuous
100
AcDbLine
 10
417.7543796971632
 20
364.3280114402554
 30
0.0
 11
417.7389016662935
 21
364.3000114402554
 31
0.0
  0
LWPOLYLINE
  5
6CF
330
1F
100
AcDbEntity
  8
INDUSA
  6
Continuous
100
AcDbPolyline
 90
        7
 70
   128
 43
0.0
 10
417.7635034480295
 20
364.3394952304402
 10
417.7651585579961
 20
364.339213338428
 10
417.7666270586243
 20
364.3383995612126
 10
417.7677440451825
 20
364.337144676545
 10
417.7683819891069
 20
364.3355918051855
 10
417.7684700803532
 20
364.3339163570361
 10
417.7679313609013
 20
364.3321722921586
  0
LWPOLYLINE
  5
6D0
330
1F
100
AcDbEntity
  8
INDUSA
  6
Continuous
100
AcDbPolyline
 90
        5
 70
   128
 43
0.0
 10
417.7253841037066
 20
364.3374007861606
 10
417.7262133000919
 20
364.3384575057926
 10
417.7273455140719
 20
364.3391802033828
 10
417.7286533011836
 20
364.3394875082564
 10
417.728901782315
 20
364.3394952304402
  0
LINE
  5
6D1
330
1F
100
AcDbEntity
  8
INDUSA
  6
Continuous
100
AcDbLine
 10
417.7535045131499
 20
364.3294952304402
 30
0.0
 11
417.7330527533301
 21
364.3294952304402
 31
0.0
  0
LINE
  5
6D2
330
1F
100
AcDbEntity
  8
INDUSA
  6
Continuous
100
AcDbLine
 10
417.728901782315
 20
364.3394952304402
 30
0.0
 11
417.7635034480295
 21
364.3394952304402
 31
0.0
  0
LINE
  5
6D5
330
1F
100
AcDbEntity
  8
INDUSA
  6
Continuous
100
AcDbLine
 10
417.728901782315
 20
364.3394952304402
 30
0.0
 11
417.717930981579
 21
364.3394952304402
 31
0.0
  0
LINE
  5
6D6
330
1F
100
AcDbEntity
  8
INDUSA
  6
Continuous
100
AcDbLine
 10
417.7321823115967
 20
364.3289875018985
 30
0.0
 11
417.7163471323967
 21
364.3009875018985
 31
0.0
  0
LWPOLYLINE
  5
6D9
330
1F
100
AcDbEntity
  8
INDUSA
  6
Continuous
100
AcDbPolyline
 90
        3
 70
   128
 43
0.0
 10
417.7253841037066
 20
364.3374007861606
 10
417.7136878832626
 20
364.3163527881668
 10
417.7015443612456
 20
364.2955472011826
  0
LINE
  5
6DA
330
1F
100
AcDbEntity
  8
INDUSA
  6
Continuous
100
AcDbLine
 10
417.7380264822804
 20
364.2994952304402
 30
0.0
 11
417.7284377308591
 21
364.2994952304402
 31
0.0
  0
LINE
  5
6DB
330
1F
100
AcDbEntity
  8
INDUSA
  6
Continuous
100
AcDbLine
 10
417.6944432874202
 20
364.2894952304402
 30
0.0
 11
417.7046295080437
 21
364.2894952304402
 31
0.0
  0
LWPOLYLINE
  5
6DF
330
1F
100
AcDbEntity
  8
INDUSA
  6
Continuous
100
AcDbPolyline
 90
        8
 70
   128
 43
0.0
 10
417.7049795180436
 20
364.2894952304402
 10
417.7036544318573
 20
364.2897208783365
 10
417.702478736875
 20
364.2903724414734
 10
417.7015852666683
 20
364.2913763435144
 10
417.7010748755872
 20
364.2926189330882
 10
417.7010047501497
 20
364.2939598508134
 10
417.7013823811317
 20
364.2952481029132
 10
417.7015443612456
 20
364.2955472011826
  0
LINE
  5
6E4
330
1F
100
AcDbEntity
  8
INDUSA
  6
Continuous
100
AcDbLine
 10
417.5101602087236
 20
364.3394952304402
 30
0.0
 11
417.5084015668733
 21
364.3394952304402
 31
0.0
  0
LINE
  5
6E5
330
1F
100
AcDbEntity
  8
INDUSA
  6
Continuous
100
AcDbLine
 10
417.5194536940144
 20
364.3394952304402
 30
0.0
 11
417.5101602082842
 21
364.3394952304402
 31
0.0
  0
LINE
  5
6E6
330
1F
100
AcDbEntity
  8
INDUSA
  6
Continuous
100
AcDbLine
 10
417.523365999785
 20
364.3394952304402
 30
0.0
 11
417.5194536940144
 21
364.3394952304402
 31
0.0
  0
LINE
  5
6E8
330
1F
100
AcDbEntity
  8
INDUSA
  6
Continuous
100
AcDbLine
 10
417.4701778709032
 20
364.2894952304402
 30
0.0
 11
417.4820588405926
 21
364.2894952304402
 31
0.0
  0
LWPOLYLINE
  5
6E9
330
1F
100
AcDbEntity
  8
INDUSA
  6
Continuous
100
AcDbPolyline
 90
        6
 70
   128
 43
0.0
 10
417.3930079143617
 20
364.3394952304402
 10
417.394333746358
 20
364.3392694731023
 10
417.3955101053295
 20
364.3386175373682
 10
417.3964038518296
 20
364.3376131533051
 10
417.3969140612897
 20
364.3363703442608
 10
417.3970051802637
 20
364.3357115602082
  0
LWPOLYLINE
  5
6EA
330
1F
100
AcDbEntity
  8
INDUSA
  6
Continuous
100
AcDbPolyline
 90
        5
 70
   128
 43
0.0
 10
417.3972613452693
 20
364.3316074149685
 10
417.3980972738735
 20
364.3222605825148
 10
417.3992835925834
 20
364.3129385004247
 10
417.4008249466877
 20
364.3036281965655
 10
417.4027178028464
 20
364.2943693221336
  0
LWPOLYLINE
  5
6EB
330
1F
100
AcDbEntity
  8
INDUSA
  6
Continuous
100
AcDbPolyline
 90
        3
 70
   128
 43
0.0
 10
417.3970051802637
 20
364.3357115602082
 10
417.397123804758
 20
364.3336759669659
 10
417.3972613452693
 20
364.3316074149685
  0
LWPOLYLINE
  5
6EE
330
1F
100
AcDbEntity
  8
INDUSA
  6
Continuous
100
AcDbPolyline
 90
        7
 70
   128
 43
0.0
 10
417.3017451989766
 20
364.3294952304402
 10
417.3864814132235
 20
364.3294952304402
 42
-0.3838230853183353
 10
417.3874759201858
 20
364.3285999008849
 10
417.388963926083
 20
364.3144618867629
 10
417.391231889708
 20
364.3006573482582
 42
-0.4627525589167807
 10
417.3902451182993
 20
364.2994952304402
 10
417.3876713038338
 20
364.2994952304402
  0
LWPOLYLINE
  5
6EF
330
1F
100
AcDbEntity
  8
INDUSA
  6
Continuous
100
AcDbPolyline
 90
        5
 70
   128
 43
0.0
 10
417.3710406895869
 20
364.2547247821135
 10
417.3716984579597
 20
364.2545890167054
 10
417.3722741997265
 20
364.2542431374502
 10
417.3727026995424
 20
364.2537263727673
 10
417.3728588671729
 20
364.2533855049046
  0
LINE
  5
6F0
330
1F
100
AcDbEntity
  8
INDUSA
  6
Continuous
100
AcDbLine
 10
417.365321895537
 20
364.287354502693
 30
0.0
 11
417.3698059538843
 21
364.2697586879866
 31
0.0
  0
LWPOLYLINE
  5
6F1
330
1F
100
AcDbEntity
  8
INDUSA
  6
Continuous
100
AcDbPolyline
 90
        7
 70
   128
 43
0.0
 10
417.3865178006109
 20
364.2207566284438
 10
417.3867089099385
 20
364.2201129761645
 10
417.3866761315412
 20
364.219442330036
 10
417.3864232662125
 20
364.2188208569079
 10
417.3859791172085
 20
364.2183183141483
 10
417.3853934716691
 20
364.2179907976756
 10
417.3847782875806
 20
364.2178759319894
  0
LWPOLYLINE
  5
6F2
330
1F
100
AcDbEntity
  8
INDUSA
  6
Continuous
100
AcDbPolyline
 90
        4
 70
   128
 43
0.0
 10
417.3728588671729
 20
364.2533855049046
 10
417.3765418991949
 20
364.2434174229964
 10
417.3805918184021
 20
364.2335773409377
 10
417.3865178006109
 20
364.2207566284438
  0
LWPOLYLINE
  5
6F3
330
1F
100
AcDbEntity
  8
INDUSA
  6
Continuous
100
AcDbPolyline
 90
        7
 70
   128
 43
0.0
 10
417.365321895537
 20
364.287354502693
 10
417.3651635362245
 20
364.2907061196868
 10
417.3661234814346
 20
364.2939212175615
 10
417.3680934713873
 20
364.2966379330316
 10
417.3708528111505
 20
364.2985511721793
 10
417.374092084495
 20
364.2994446373823
 10
417.3750974893684
 20
364.2994952304402
  0
LWPOLYLINE
  5
6F4
330
1F
100
AcDbEntity
  8
INDUSA
  6
Continuous
100
AcDbPolyline
 90
        7
 70
   128
 43
0.0
 10
417.4027178028464
 20
364.2943693221336
 10
417.4027872674316
 20
364.2930290139643
 10
417.4024091768619
 20
364.2917412683524
 10
417.4016261755606
 20
364.2906510201267
 10
417.4005259627779
 20
364.2898806856089
 10
417.3992318836193
 20
364.2895173557962
 10
417.3988114207396
 20
364.2894952304402
  0
LINE
  5
6F7
330
1F
100
AcDbEntity
  8
INDUSA
  6
Continuous
100
AcDbLine
 10
417.5084015675258
 20
364.3394952304402
 30
0.0
 11
417.3930079143617
 21
364.3394952304402
 31
0.0
  0
LINE
  5
6F8
330
1F
100
AcDbEntity
  8
INDUSA
  6
Continuous
100
AcDbLine
 10
417.3991614307396
 20
364.2894952304402
 30
0.0
 11
417.4701778709032
 21
364.2894952304402
 31
0.0
  0
LINE
  5
6FB
330
1F
100
AcDbEntity
  8
INDUSA
  6
Continuous
100
AcDbLine
 10
417.7179309818815
 20
364.3394952304402
 30
0.0
 11
417.523365999785
 21
364.3394952304402
 31
0.0
  0
LINE
  5
6FC
330
1F
100
AcDbEntity
  8
INDUSA
  6
Continuous
100
AcDbLine
 10
417.4820588405926
 20
364.2894952304402
 30
0.0
 11
417.6944432874869
 21
364.2894952304402
 31
0.0
  0
LINE
  5
6FD
330
1F
100
AcDbEntity
  8
INDUSA
  6
Continuous
100
AcDbLine
 10
417.2927451989766
 20
364.3169684402636
 30
0.0
 11
417.2927451989766
 21
364.3239624790994
 31
0.0
  0
LWPOLYLINE
  5
6FE
330
1F
100
AcDbEntity
  8
INDUSA
  6
Continuous
100
AcDbPolyline
 90
        7
 70
   128
 43
0.0
 10
417.2917800984733
 20
364.3249626039607
 10
417.2918560775014
 20
364.324957043172
 10
417.2921785656369
 20
364.3248643611898
 10
417.2924522546123
 20
364.3246701622179
 10
417.2926463948711
 20
364.3243962163888
 10
417.2927390548442
 20
364.3240732452611
 10
417.2927451989766
 20
364.3239624790994
  0
LINE
  5
6FF
330
1F
100
AcDbEntity
  8
INDUSA
  6
Continuous
100
AcDbLine
 10
417.3007451989766
 20
364.3169684402636
 30
0.0
 11
417.3007451989766
 21
364.3284952304402
 31
0.0
  0
LWPOLYLINE
  5
700
330
1F
100
AcDbEntity
  8
INDUSA
  6
Continuous
100
AcDbPolyline
 90
        7
 70
   128
 43
0.0
 10
417.3007451989766
 20
364.3169684402636
 10
417.3007435958144
 20
364.3169117562099
 10
417.3006684039561
 20
364.3165835631778
 10
417.3004887737887
 20
364.3162987813752
 10
417.3002251603953
 20
364.3160898149209
 10
417.3000308301232
 20
364.3160086347233
 10
417.2997451989766
 20
364.315966906979
  0
LINE
  5
701
330
1F
100
AcDbEntity
  8
INDUSA
  6
Continuous
100
AcDbLine
 10
417.2937451989766
 20
364.315966906979
 30
0.0
 11
417.2997451989766
 21
364.315966906979
 31
0.0
  0
LWPOLYLINE
  5
702
330
1F
100
AcDbEntity
  8
INDUSA
  6
Continuous
100
AcDbPolyline
 90
        7
 70
   128
 43
0.0
 10
417.2937451989766
 20
364.315966906979
 10
417.2935631994294
 20
364.3159836354136
 10
417.2932485053726
 20
364.3160991935227
 10
417.2930789425653
 20
364.3162215905397
 10
417.2928695388576
 20
364.3164847931976
 10
417.2927590310504
 20
364.3168024484404
 10
417.2927451989766
 20
364.3169684402636
  0
LWPOLYLINE
  5
703
330
1F
100
AcDbEntity
  8
INDUSA
  6
Continuous
100
AcDbPolyline
 90
        7
 70
   128
 43
0.0
 10
417.2458321482894
 20
364.3454457449278
 10
417.2494327881811
 20
364.3446025389824
 10
417.2513946516465
 20
364.343636054795
 10
417.2531679365164
 20
364.3423560866967
 10
417.2547870190004
 20
364.3408807322889
 10
417.2566124160697
 20
364.3397706372518
 10
417.2583117093532
 20
364.3394952304402
  0
LWPOLYLINE
  5
704
330
1F
100
AcDbEntity
  8
INDUSA
  6
Continuous
100
AcDbPolyline
 90
        6
 70
   128
 43
0.0
 10
417.2447451989766
 20
364.3444495245483
 10
417.2448015708516
 20
364.3447805345843
 10
417.2449643312642
 20
364.3450742257611
 10
417.2452151296445
 20
364.3452974853592
 10
417.245525688449
 20
364.3454251421643
 10
417.2458321482894
 20
364.3454457449278
  0
LWPOLYLINE
  5
706
330
1F
100
AcDbEntity
  8
INDUSA
  6
Continuous
100
AcDbPolyline
 90
        7
 70
   128
 43
0.0
 10
417.2637102994799
 20
364.3259434909509
 10
417.2635816350848
 20
364.3259563574804
 10
417.2633794583557
 20
364.3260122098161
 10
417.2630920328044
 20
364.3261858249298
 10
417.2628782680196
 20
364.3264447768349
 10
417.2627621588148
 20
364.3267600121184
 10
417.2627451989766
 20
364.3269435154436
  0
LINE
  5
707
330
1F
100
AcDbEntity
  8
INDUSA
  6
Continuous
100
AcDbLine
 10
417.2627451989766
 20
364.3269435154436
 30
0.0
 11
417.2627451989766
 21
364.3274952304402
 31
0.0
  0
ARC
  5
708
330
1F
100
AcDbEntity
  8
INDUSA
  6
Continuous
100
AcDbCircle
 10
417.2607451989766
 20
364.3274952304402
 30
0.0
 40
0.0019999999999999
100
AcDbArc
 50
0.0
 51
90.0
  0
LINE
  5
709
330
1F
100
AcDbEntity
  8
INDUSA
  6
Continuous
100
AcDbLine
 10
417.2607451989766
 20
364.3294952304402
 30
0.0
 11
417.2467451989765
 21
364.3294952304402
 31
0.0
  0
ARC
  5
70A
330
1F
100
AcDbEntity
  8
INDUSA
  6
Continuous
100
AcDbCircle
 10
417.2467451989765
 20
364.3314952304402
 30
0.0
 40
0.0020000000000002
100
AcDbArc
 50
180.0
 51
270.0
  0
LINE
  5
70E
330
1F
100
AcDbEntity
  8
INDUSA
  6
Continuous
100
AcDbLine
 10
417.2447451989766
 20
364.3314952304402
 30
0.0
 11
417.2447451989766
 21
364.327233501316
 31
0.0
  0
LINE
  5
712
330
1F
100
AcDbEntity
  8
INDUSA
  6
Continuous
100
AcDbLine
 10
417.2447451989766
 20
364.3268851085474
 30
0.0
 11
417.2447451989766
 21
364.3051096912537
 31
0.0
  0
LINE
  5
716
330
1F
100
AcDbEntity
  8
INDUSA
  6
Continuous
100
AcDbLine
 10
417.2447451989766
 20
364.3444495245484
 30
0.0
 11
417.2447451989766
 21
364.3314952304402
 31
0.0
  0
LWPOLYLINE
  5
717
330
1F
100
AcDbEntity
  8
INDUSA
  6
Continuous
100
AcDbPolyline
 90
        3
 70
   128
 43
0.0
 10
417.2637102994799
 20
364.3259434909509
 10
417.2709583250296
 20
364.3256902164451
 10
417.2917800984733
 20
364.3249626039607
  0
LWPOLYLINE
  5
718
330
1F
100
AcDbEntity
  8
INDUSA
  6
Continuous
100
AcDbPolyline
 90
        6
 70
   128
 43
0.0
 10
417.2927451989766
 20
364.2730279818843
 10
417.2926962988973
 20
364.2727188655579
 10
417.2925402627207
 20
364.2724210038077
 10
417.2923955757676
 20
364.2722678070947
 10
417.2921076292245
 20
364.2720952846927
 10
417.2917800984733
 20
364.2720278570229
  0
LINE
  5
719
330
1F
100
AcDbEntity
  8
INDUSA
  6
Continuous
100
AcDbLine
 10
417.2927451989766
 20
364.2730279818843
 30
0.0
 11
417.2927451989766
 21
364.2800220207201
 31
0.0
  0
LWPOLYLINE
  5
71A
330
1F
100
AcDbEntity
  8
INDUSA
  6
Continuous
100
AcDbPolyline
 90
        7
 70
   128
 43
0.0
 10
417.2927451989766
 20
364.2800220207201
 10
417.292752926226
 20
364.2801462776114
 10
417.2928010386208
 20
364.2803519935422
 10
417.292963424498
 20
364.2806465179127
 10
417.2932141815838
 20
364.2808706696246
 10
417.2935247270119
 20
364.2809989074825
 10
417.2937451989766
 20
364.2810235540047
  0
LINE
  5
71B
330
1F
100
AcDbEntity
  8
INDUSA
  6
Continuous
100
AcDbLine
 10
417.2997451989766
 20
364.2810235540047
 30
0.0
 11
417.2937451989766
 21
364.2810235540047
 31
0.0
  0
LWPOLYLINE
  5
71C
330
1F
100
AcDbEntity
  8
INDUSA
  6
Continuous
100
AcDbPolyline
 90
        7
 70
   128
 43
0.0
 10
417.2997451989766
 20
364.2810235540047
 10
417.2997595261192
 20
364.2810234511995
 10
417.3000892100597
 20
364.2809624209935
 10
417.3003801405191
 20
364.2807957502252
 10
417.3005998421796
 20
364.2805420112402
 10
417.3006893593323
 20
364.2803519935422
 10
417.3007451989766
 20
364.2800220207201
  0
LINE
  5
71D
330
1F
100
AcDbEntity
  8
INDUSA
  6
Continuous
100
AcDbLine
 10
417.3007451989766
 20
364.2685117437154
 30
0.0
 11
417.3007451989766
 21
364.2800220207201
 31
0.0
  0
LINE
  5
720
330
1F
100
AcDbEntity
  8
INDUSA
  6
Continuous
100
AcDbLine
 10
417.2749854138447
 20
364.2335227581417
 30
0.0
 11
417.2849281763077
 21
364.2151114243066
 31
0.0
  0
ARC
  5
721
330
1F
100
AcDbEntity
  8
INDUSA
  6
Continuous
100
AcDbCircle
 10
417.2767451989766
 20
364.2344731034946
 30
0.0
 40
0.0020000000000002
100
AcDbArc
 50
180.0
 51
208.3705935696052
  0
LINE
  5
726
330
1F
100
AcDbEntity
  8
INDUSA
  6
Continuous
100
AcDbLine
 10
417.2747451989766
 20
364.2580761812579
 30
0.0
 11
417.2747451989766
 21
364.2344731034946
 31
0.0
  0
LWPOLYLINE
  5
728
330
1F
100
AcDbEntity
  8
INDUSA
  6
Continuous
100
AcDbPolyline
 90
        7
 70
   128
 43
0.0
 10
417.2637102994799
 20
364.2584739014375
 10
417.2636556700008
 20
364.2584773090998
 10
417.2633311384282
 20
364.2585630705443
 10
417.26315023557
 20
364.2586696002568
 10
417.2629177106362
 20
364.2589119462466
 10
417.2627785049143
 20
364.2592175917249
 10
417.2627451989766
 20
364.2594736091506
  0
LINE
  5
729
330
1F
100
AcDbEntity
  8
INDUSA
  6
Continuous
100
AcDbLine
 10
417.2627451989766
 20
364.2594736091506
 30
0.0
 11
417.2627451989766
 21
364.2700469455401
 31
0.0
  0
LWPOLYLINE
  5
72A
330
1F
100
AcDbEntity
  8
INDUSA
  6
Continuous
100
AcDbPolyline
 90
        7
 70
   128
 43
0.0
 10
417.2627451989766
 20
364.2700469455401
 10
417.2627551581855
 20
364.2701878128884
 10
417.2628576671094
 20
364.2705079783874
 10
417.2629738580666
 20
364.2706837659841
 10
417.2632279287252
 20
364.2709033074632
 10
417.2635403582826
 20
364.2710263610076
 10
417.2637102994799
 20
364.2710469700328
  0
LWPOLYLINE
  5
72E
330
1F
100
AcDbEntity
  8
INDUSA
  6
Continuous
100
AcDbPolyline
 90
        6
 70
   128
 43
0.0
 10
417.2628007331111
 20
364.2124858934126
 10
417.2628660113058
 20
364.2130512828779
 10
417.2631438468259
 20
364.2136629508396
 10
417.2636084605374
 20
364.2141480980017
 10
417.264207380147
 20
364.2144520129765
 10
417.2647444278179
 20
364.2145410632799
  0
LWPOLYLINE
  5
730
330
1F
100
AcDbEntity
  8
INDUSA
  6
Continuous
100
AcDbPolyline
 90
        3
 70
   128
 43
0.0
 10
417.2917800984733
 20
364.2720278570229
 10
417.2709583250296
 20
364.2713002445386
 10
417.2637102994799
 20
364.2710469700328
  0
LINE
  5
733
330
1F
100
AcDbEntity
  8
INDUSA
  6
Continuous
100
AcDbLine
 10
417.2627451989766
 20
364.2700469455401
 30
0.0
 11
417.2627451989766
 21
364.3269435154436
 31
0.0
  0
LWPOLYLINE
  5
736
330
1F
100
AcDbEntity
  8
INDUSA
  6
Continuous
100
AcDbPolyline
 90
        3
 70
   128
 43
0.0
 10
417.2647444278179
 20
364.2145410632799
 10
417.2856577469525
 20
364.2151220979749
 10
417.3847782875806
 20
364.2178759319894
  0
LWPOLYLINE
  5
737
330
1F
100
AcDbEntity
  8
INDUSA
  6
Continuous
100
AcDbPolyline
 90
        4
 70
   128
 43
0.0
 10
417.3710406895869
 20
364.2547247821135
 10
417.3554521055629
 20
364.2552692899389
 10
417.2772207258736
 20
364.2580019627913
 10
417.2637102994799
 20
364.2584739014375
  0
LINE
  5
738
330
1F
100
AcDbEntity
  8
INDUSA
  6
Continuous
100
AcDbLine
 10
417.3688369242011
 20
364.2685117437154
 30
0.0
 11
417.3007451989766
 21
364.2685117437154
 31
0.0
  0
LINE
  5
739
330
1F
100
AcDbEntity
  8
INDUSA
  6
Continuous
100
AcDbLine
 10
417.2583117093532
 20
364.3394952304402
 30
0.0
 11
417.3930079143617
 21
364.3394952304402
 31
0.0
  0
LWPOLYLINE
  5
73F
330
1F
100
AcDbEntity
  8
INDUSA
  6
Continuous
100
AcDbPolyline
 90
        8
 70
   128
 43
0.0
 10
417.4479716854062
 20
364.1706417657622
 10
417.450303733029
 20
364.1698821426526
 10
417.4524767812242
 20
364.1687448984011
 10
417.4544292056054
 20
364.1672547681458
 10
417.4561058282044
 20
364.1654599506567
 10
417.4574545611045
 20
364.1634078239916
 10
417.4584422002394
 20
364.161159522608
 10
417.4591953771291
 20
364.1573548677749
  0
LWPOLYLINE
  5
747
330
1F
100
AcDbEntity
  8
INDUSA
  6
Continuous
100
AcDbPolyline
 90
       20
 70
   128
 43
0.0
 10
417.4591953771288
 20
364.1573548677749
 10
417.4610512249067
 20
364.1274265168847
 10
417.4628473430208
 20
364.0984614834991
 10
417.4645815729912
 20
364.0704945703218
 42
-0.4142244125738296
 10
417.463645344295
 20
364.0694345939456
 10
417.4621437868869
 20
364.0693415381189
 10
417.4596441073484
 20
364.0691866251576
 10
417.4556577453628
 20
364.0689395763517
 42
-0.4142031894261212
 10
417.4545978075666
 20
364.0698757713298
 10
417.4525317961342
 20
364.1031936719379
 10
417.4507361872732
 20
364.1321509639424
 10
417.450115732756
 20
364.1421568820899
 10
417.4497096707474
 20
364.1487053497371
 10
417.4494439197594
 20
364.1529910563055
 10
417.4492699965678
 20
364.155795877517
 10
417.4491826485589
 20
364.1569433318292
 10
417.448930416071
 20
364.1580556382952
 10
417.4481584218537
 20
364.1593828797895
 10
417.4469906522522
 20
364.1603797862987
 10
417.4456856447926
 20
364.1609064209273
  0
LWPOLYLINE
  5
75D
330
1F
100
AcDbEntity
  8
INDUSA
  6
Continuous
100
AcDbPolyline
 90
        5
 70
   128
 43
0.0
 10
417.3443523447123
 20
364.1102376638635
 10
417.3476450775646
 20
364.1095823870734
 10
417.3505352813632
 20
364.1078740648756
 10
417.3526966644293
 20
364.105305701899
 10
417.3538544356432
 20
364.1023220591254
  0
LWPOLYLINE
  5
75E
330
1F
100
AcDbEntity
  8
INDUSA
  6
Continuous
100
AcDbPolyline
 90
        9
 70
   128
 43
0.0
 10
417.3446347239648
 20
364.1202358258478
 10
417.3479823535887
 20
364.1198569775621
 10
417.351219990592
 20
364.1189254192044
 10
417.3542535603824
 20
364.1174598146939
 10
417.3570002343678
 20
364.115508842426
 10
417.3593766494546
 20
364.1131222775097
 10
417.3613219433417
 20
364.1103729314242
 10
417.3627182262939
 20
364.1074821389687
 10
417.3636371325105
 20
364.1044061118962
  0
LWPOLYLINE
  5
761
330
1F
100
AcDbEntity
  8
INDUSA
  6
Continuous
100
AcDbPolyline
 90
        9
 70
   128
 43
0.0
 10
417.5250449089313
 20
364.0151192804136
 10
417.5190179568194
 20
364.0100198890335
 10
417.5125680713939
 20
364.0054672060261
 10
417.505515265313
 20
364.0013793484442
 10
417.4981221451404
 20
363.9979450467867
 10
417.4907377323509
 20
363.9952848663104
 10
417.4831499593741
 20
363.9932769285116
 10
417.4751652084762
 20
363.9919072544254
 10
417.4670897584114
 20
363.9912596735482
  0
LWPOLYLINE
  5
762
330
1F
100
AcDbEntity
  8
INDUSA
  6
Continuous
100
AcDbPolyline
 90
        9
 70
   128
 43
0.0
 10
417.5241818815996
 20
364.0279785451341
 10
417.5174786942977
 20
364.0222298052095
 10
417.5102953693501
 20
364.017093602886
 10
417.5024281083183
 20
364.0124760225939
 10
417.4941735293337
 20
364.0085930120209
 10
417.485879820011
 20
364.005568090225
 10
417.4773520407036
 20
364.0032849459189
 10
417.4683665997241
 20
364.0017272854611
 10
417.4592767600743
 20
364.0009929330772
  0
LWPOLYLINE
  5
768
330
1F
100
AcDbEntity
  8
INDUSA
  6
Continuous
100
AcDbPolyline
 90
        7
 70
   128
 43
0.0
 10
417.3747717958637
 20
364.0039136164221
 10
417.3748401839261
 20
364.0022364356058
 10
417.374349566504
 20
364.0006311630643
 10
417.373355251237
 20
363.9992786805653
 10
417.3719691468932
 20
363.9983313368806
 10
417.3703473532887
 20
363.9978960529608
 10
417.370054689744
 20
363.9978772297255
  0
LWPOLYLINE
  5
769
330
1F
100
AcDbEntity
  8
INDUSA
  6
Continuous
100
AcDbPolyline
 90
        6
 70
   128
 43
0.0
 10
417.3878387553335
 20
363.9984982629806
 10
417.3871728628019
 20
363.9985878717244
 10
417.3865741697026
 20
363.9988928537828
 10
417.3861102835176
 20
363.9993787764189
 10
417.3858335273402
 20
363.9999907085548
 10
417.3858120567921
 20
364.000081295446
  0
LINE
  5
76A
330
1F
100
AcDbEntity
  8
INDUSA
  6
Continuous
100
AcDbLine
 10
417.4592767600743
 20
364.0009929330772
 30
0.0
 11
417.3878387553335
 21
363.9984982629806
 31
0.0
  0
LINE
  5
76C
330
1F
100
AcDbEntity
  8
INDUSA
  6
Continuous
100
AcDbLine
 10
417.3538470153993
 20
364.1023115917743
 30
0.0
 11
417.3747621888407
 21
364.0039134370575
 31
0.0
  0
LINE
  5
76F
330
1F
100
AcDbEntity
  8
INDUSA
  6
Continuous
100
AcDbLine
 10
417.3858120567921
 20
364.000081295446
 30
0.0
 11
417.3636371325104
 21
364.1044061118962
 31
0.0
  0
LWPOLYLINE
  5
774
330
1F
100
AcDbEntity
  8
INDUSA
  6
Continuous
100
AcDbPolyline
 90
        7
 70
   128
 43
0.0
 10
417.2650220984903
 20
364.2045425565987
 10
417.2648121582335
 20
364.2045477561881
 10
417.2641610111045
 20
364.2047112381854
 10
417.2637965710817
 20
364.2049198238428
 10
417.2633255770724
 20
364.2053987205524
 10
417.2630396400133
 20
364.2060065118824
 10
417.2629673355145
 20
364.2064867967273
  0
LWPOLYLINE
  5
777
330
1F
100
AcDbEntity
  8
INDUSA
  6
Continuous
100
AcDbPolyline
 90
        7
 70
   128
 43
0.0
 10
417.2647444278179
 20
364.1124493977037
 10
417.2644893478409
 20
364.1124728985222
 10
417.2638530021938
 20
364.1126870626475
 10
417.2635059742163
 20
364.1129237271064
 10
417.2630741109717
 20
364.1134381557811
 10
417.2628368629221
 20
364.1140665276128
 10
417.2628007331111
 20
364.114504567571
  0
LINE
  5
778
330
1F
100
AcDbEntity
  8
INDUSA
  6
Continuous
100
AcDbLine
 10
417.2629673355145
 20
364.1205036642564
 30
0.0
 11
417.2628007331111
 21
364.114504567571
 31
0.0
  0
LWPOLYLINE
  5
779
330
1F
100
AcDbEntity
  8
INDUSA
  6
Continuous
100
AcDbPolyline
 90
        7
 70
   128
 43
0.0
 10
417.2629673355145
 20
364.1205036642564
 10
417.2630230525683
 20
364.1209202194098
 10
417.2631647657136
 20
364.1213164082625
 10
417.2635536787949
 20
364.1218640467209
 10
417.2641019530219
 20
364.1222520725312
 10
417.2647476424715
 20
364.1224366544344
 10
417.2650220984903
 20
364.1224479043849
  0
ARC
  5
77C
330
1F
100
AcDbEntity
  8
INDUSA
  6
Continuous
100
AcDbCircle
 10
417.3076976834836
 20
364.0007027228052
 30
0.0
 40
0.005
100
AcDbArc
 50
272.0000000000623
 51
0.0
  0
ARC
  5
782
330
1F
100
AcDbEntity
  8
INDUSA
  6
Continuous
100
AcDbCircle
 10
417.2457451989766
 20
363.984530760754
 30
0.0
 40
0.0010000000000002
100
AcDbArc
 50
180.0
 51
272.0000000000753
  0
LINE
  5
783
330
1F
100
AcDbEntity
  8
INDUSA
  6
Continuous
100
AcDbLine
 10
417.2447451989766
 20
363.9915699483336
 30
0.0
 11
417.2447451989766
 21
363.984530760754
 31
0.0
  0
ARC
  5
784
330
1F
100
AcDbEntity
  8
INDUSA
  6
Continuous
100
AcDbCircle
 10
417.2467451989765
 20
363.9915699483336
 30
0.0
 40
0.0020000000000002
100
AcDbArc
 50
92.00000000006882
 51
180.0
  0
LINE
  5
787
330
1F
100
AcDbEntity
  8
INDUSA
  6
Continuous
100
AcDbLine
 10
417.2447451989766
 20
363.9970368365488
 30
0.0
 11
417.2447451989766
 21
363.9915699483336
 31
0.0
  0
LINE
  5
78A
330
1F
100
AcDbEntity
  8
INDUSA
  6
Continuous
100
AcDbLine
 10
417.3126976834836
 20
364.1111076614778
 30
0.0
 11
417.3126976834836
 21
364.0007027228052
 31
0.0
  0
LWPOLYLINE
  5
78C
330
1F
100
AcDbEntity
  8
INDUSA
  6
Continuous
100
AcDbPolyline
 90
        3
 70
   128
 43
0.0
 10
417.3443523447123
 20
364.1102376638635
 10
417.2856786851977
 20
364.1118677812828
 10
417.2647444278179
 20
364.1124493977037
  0
LWPOLYLINE
  5
78D
330
1F
100
AcDbEntity
  8
INDUSA
  6
Continuous
100
AcDbPolyline
 90
       16
 70
   128
 43
0.0
 10
417.2650220984903
 20
364.2045425565987
 10
417.2761655865185
 20
364.2048521882261
 10
417.3566370723562
 20
364.2070881212498
 10
417.3925436089315
 20
364.208085779042
 42
-0.2732224208128061
 10
417.3934333180273
 20
364.2075931836732
 10
417.4006507914303
 20
364.1953234374856
 10
417.4047073093704
 20
364.18905922959
 10
417.4092144195502
 20
364.1831250775344
 10
417.4130900759309
 20
364.1789553681593
 10
417.4172980571803
 20
364.1751212989669
 10
417.4219458174617
 20
364.1715553537907
 10
417.4268807815816
 20
364.168398809115
 10
417.4313122051467
 20
364.1660380431499
 10
417.4359044508434
 20
364.1640077692709
 10
417.4407402963528
 20
364.162286059863
 10
417.4456913467294
 20
364.1609307787738
  0
LWPOLYLINE
  5
78E
330
1F
100
AcDbEntity
  8
INDUSA
  6
Continuous
100
AcDbPolyline
 90
        3
 70
   128
 43
0.0
 10
417.3446347239648
 20
364.1202358258478
 10
417.2761486527513
 20
364.1221387432761
 10
417.2650220984903
 20
364.1224479043849
  0
LINE
  5
78F
330
1F
100
AcDbEntity
  8
INDUSA
  6
Continuous
100
AcDbLine
 10
417.4670897584114
 20
363.9912596735483
 30
0.0
 11
417.2457800984733
 21
363.983531369927
 31
0.0
  0
LINE
  5
790
330
1F
100
AcDbEntity
  8
INDUSA
  6
Continuous
100
AcDbLine
 10
417.370054689744
 20
363.9978772297256
 30
0.0
 11
417.2466753999832
 21
363.9935687299876
 31
0.0
  0
LINE
  5
792
330
1F
100
AcDbEntity
  8
INDUSA
  6
Continuous
100
AcDbLine
 10
417.2627999619524
 20
364.2125413440094
 30
0.0
 11
417.2627999619524
 21
364.1144490544154
 31
0.0
  0
LWPOLYLINE
  5
793
330
1F
100
AcDbEntity
  8
INDUSA
  6
Continuous
100
AcDbPolyline
 90
       15
 70
   128
 43
0.0
 10
417.7679313609178
 20
364.3321722921609
 10
417.7553051989319
 20
364.3087541089577
 10
417.742153663327
 20
364.2856268892479
 10
417.7277605120492
 20
364.261627644121
 10
417.7128014899459
 20
364.2379769747762
 10
417.6973202310142
 20
364.2147403929739
 10
417.6812923141696
 20
364.1918774570283
 10
417.6646882495881
 20
364.1693509725727
 10
417.6475528929249
 20
364.1472259452497
 10
417.6283662293442
 20
364.123684210185
 10
417.6085740634444
 20
364.10064251106
 10
417.588195875268
 20
364.0781242990526
 10
417.5676815953691
 20
364.0565921113442
 10
417.5466245374139
 20
364.0355836431222
 10
417.5250449089313
 20
364.0151192804136
  0
LWPOLYLINE
  5
794
330
1F
100
AcDbEntity
  8
INDUSA
  6
Continuous
100
AcDbPolyline
 90
        2
 70
   128
 43
0.0
 10
417.7049795180436
 20
364.2894952304402
 10
417.7184377308591
 20
364.2894952304402
  0
LINE
  5
795
330
1F
100
AcDbEntity
  8
INDUSA
  6
Continuous
100
AcDbLine
 10
417.2628007331111
 20
364.2124858934126
 30
0.0
 11
417.2629673355145
 21
364.2064867967273
 31
0.0
  0
LWPOLYLINE
  5
796
330
1F
100
AcDbEntity
  8
INDUSA
  6
Continuous
100
AcDbPolyline
 90
        2
 70
   128
 43
0.0
 10
417.3988114207396
 20
364.2894952304402
 10
417.3876713038338
 20
364.2894952304402
  0
LINE
  5
79A
330
1F
100
AcDbEntity
  8
INDUSA
  6
Continuous
100
AcDbLine
 10
417.2447451989766
 20
364.3051096991158
 30
0.0
 11
417.2447451989766
 21
363.9970368365488
 31
0.0
  0
LWPOLYLINE
  5
A33
330
1F
100
AcDbEntity
  8
INDUSA
  6
Continuous
100
AcDbPolyline
 90
       18
 70
   128
 43
0.0
 10
416.5960302984021
 20
364.1723472187035
 10
416.6220834251587
 20
364.1682724115503
 10
416.6351990184354
 20
364.1666594567879
 10
416.6483671315671
 20
364.1655421702623
 10
416.6679501494312
 20
364.1646864957705
 10
416.687565957908
 20
364.1646445837363
 10
416.7071781465954
 20
364.1652955878907
 10
416.7267503050912
 20
364.166518661965
 10
416.7466381184582
 20
364.1682321824234
 10
416.7664820254073
 20
364.1704979473778
 10
416.7862172210923
 20
364.1734887564715
 10
416.8057789006668
 20
364.1773774093478
 10
416.817339767121
 20
364.1802293684377
 10
416.8287721296773
 20
364.1835785592681
 10
416.8400194864179
 20
364.1874817297806
 10
416.851305628791
 20
364.1921111163329
 10
416.8623127582878
 20
364.197394179006
 10
416.8729734476845
 20
364.2033227089559
  0
LINE
  5
A34
330
1F
100
AcDbEntity
  8
INDUSA
  6
Continuous
100
AcDbLine
 10
416.6877144704446
 20
363.9883216232448
 30
0.0
 11
416.5385031998843
 21
363.9831110508599
 31
0.0
  0
LINE
  5
A36
330
1F
100
AcDbEntity
  8
INDUSA
  6
Continuous
100
AcDbLine
 10
416.5787954462246
 20
364.336557400378
 30
0.0
 11
416.9703310815839
 21
364.336557400378
 31
0.0
  0
LWPOLYLINE
  5
A38
330
1F
100
AcDbEntity
  8
INDUSA
  6
Continuous
100
AcDbPolyline
 90
       10
 70
   128
 43
0.0
 10
416.9341516281265
 20
364.2479350168137
 10
416.9158835464858
 20
364.2192394632817
 10
416.8967960724421
 20
364.191110746766
 10
416.8769033142043
 20
364.1635663097154
 10
416.8562193799817
 20
364.1366235945785
 10
416.8347583779833
 20
364.1103000438042
 10
416.8129378816268
 20
364.0850661117197
 10
416.790394796797
 20
364.0604627781071
 10
416.7671424893223
 20
364.0365065675849
 10
416.7431943250306
 20
364.0132140047717
  0
LWPOLYLINE
  5
A3A
330
1F
100
AcDbEntity
  8
INDUSA
  6
Continuous
100
AcDbPolyline
 90
       11
 70
   128
 43
0.0
 10
416.9885696135973
 20
364.3292354621388
 10
416.9753150785552
 20
364.304671719924
 10
416.9596971582221
 20
364.2773990919548
 10
416.9470309698628
 20
364.2564526744719
 10
416.9320139135726
 20
364.2328265526833
 10
416.9174678053702
 20
364.2110661254394
 10
416.902440655715
 20
364.1896350677385
 10
416.8848026886678
 20
364.1657119572677
 10
416.866553405522
 20
364.1422277312028
 10
416.8520123491381
 20
364.1243586699713
 10
416.8439514440497
 20
364.1148402664283
  0
LWPOLYLINE
  5
A3B
330
1F
100
AcDbEntity
  8
INDUSA
  6
Continuous
100
AcDbPolyline
 90
        5
 70
   128
 43
0.0
 10
416.7621990154055
 20
364.0277618262309
 10
416.7795569593204
 20
364.0447861901567
 10
416.7969746096345
 20
364.0626112514877
 10
416.8223225770637
 20
364.089967504505
 10
416.8439514440497
 20
364.1148402664283
  0
LWPOLYLINE
  5
A3E
330
1F
100
AcDbEntity
  8
INDUSA
  6
Continuous
100
AcDbPolyline
 90
        8
 70
   128
 43
0.0
 10
416.7419633905732
 20
364.0087224847184
 10
416.7332391007421
 20
364.002558311352
 10
416.7262099931066
 20
363.9984773851604
 10
416.7188420199912
 20
363.9950458713648
 10
416.7114372472354
 20
363.9923700456703
 10
416.7038272912009
 20
363.9903503246507
 10
416.6958166369862
 20
363.988972558894
 10
416.6877144704446
 20
363.9883216232448
  0
LWPOLYLINE
  5
A3F
330
1F
100
AcDbEntity
  8
INDUSA
  6
Continuous
100
AcDbPolyline
 90
        9
 70
   128
 43
0.0
 10
416.7431943250306
 20
364.0132140047717
 10
416.7369350946191
 20
364.0078020869899
 10
416.7302095620411
 20
364.0029817547695
 10
416.7228164756461
 20
363.9986575004812
 10
416.7150525584018
 20
363.9950409692783
 10
416.7074211845853
 20
363.9922969045243
 10
416.6995793618863
 20
363.9902298945116
 10
416.6913281142312
 20
363.9888221871386
 10
416.6829843788815
 20
363.9881564448077
  0
LINE
  5
A41
330
1F
100
AcDbEntity
  8
INDUSA
  6
Continuous
100
AcDbLine
 10
416.7621990154055
 20
364.027761826231
 30
0.0
 11
416.7456782980297
 21
364.0121881188094
 31
0.0
  0
LWPOLYLINE
  5
A42
330
1F
100
AcDbEntity
  8
INDUSA
  6
Continuous
100
AcDbPolyline
 90
        2
 70
   128
 43
0.0
 10
416.7419633905732
 20
364.0087224847184
 10
416.7453914209653
 20
364.011945282869
  0
LWPOLYLINE
  5
A43
330
1F
100
AcDbEntity
  8
INDUSA
  6
Continuous
100
AcDbPolyline
 90
        2
 70
   128
 43
0.0
 10
416.7456782980297
 20
364.0121881188094
 10
416.7453914209653
 20
364.011945282869
  0
LWPOLYLINE
  5
A46
330
1F
100
AcDbEntity
  8
INDUSA
  6
Continuous
100
AcDbPolyline
 90
       13
 70
   128
 43
0.0
 10
416.9841414388367
 20
364.336557400378
 10
416.9849689065277
 20
364.336488407513
 10
416.9857963742187
 20
364.3362755343284
 10
416.9865543882395
 20
364.335936635655
 10
416.9872647197735
 20
364.3354618449765
 10
416.9878681858035
 20
364.3348907301631
 10
416.9883816422922
 20
364.3342070732956
 10
416.9887616344939
 20
364.3334687882127
 10
416.9890196285195
 20
364.3326542555325
 10
416.9891338870719
 20
364.3318322750249
 10
416.989107804868
 20
364.3309787581387
 10
416.9889234598068
 20
364.3300972398051
 10
416.9885696135478
 20
364.3292354621646
  0
LINE
  5
A47
330
1F
100
AcDbEntity
  8
INDUSA
  6
Continuous
100
AcDbLine
 10
416.9703310820988
 20
364.336557400378
 30
0.0
 11
416.9841414388682
 21
364.336557400378
 31
0.0
  0
LWPOLYLINE
  5
A48
330
1F
100
AcDbEntity
  8
INDUSA
  6
Continuous
100
AcDbPolyline
 90
        6
 70
   128
 43
0.0
 10
416.8729734944172
 20
364.2033226260656
 10
416.8851315599825
 20
364.2108995273229
 10
416.896962755823
 20
364.2190020199213
 10
416.9085373732539
 20
364.227808875096
 10
416.9195510806867
 20
364.23716570177
 10
416.9195511237025
 20
364.237165740356
  0
LWPOLYLINE
  5
A49
330
1F
100
AcDbEntity
  8
INDUSA
  6
Continuous
100
AcDbPolyline
 90
        8
 70
   128
 43
0.0
 10
416.9195511237025
 20
364.237165740356
 10
416.9195511667576
 20
364.2371657782422
 10
416.923173309795
 20
364.2403837925428
 10
416.9267354304413
 20
364.243538556256
 10
416.9302070279476
 20
364.2464954080545
 10
416.9320384098183
 20
364.2479341015775
 10
416.9337551101714
 20
364.2490147781042
 10
416.934307259409
 20
364.2491994427504
  0
LWPOLYLINE
  5
A4C
330
1F
100
AcDbEntity
  8
INDUSA
  6
Continuous
100
AcDbPolyline
 90
        4
 70
   128
 43
0.0
 10
416.5397254793781
 20
364.1699517653709
 10
416.541619136416
 20
364.1656791370167
 10
416.5428867743722
 20
364.1608269243772
 10
416.5433287024008
 20
364.155696585077
  0
LINE
  5
A51
330
1F
100
AcDbEntity
  8
INDUSA
  6
Continuous
100
AcDbLine
 10
416.4653762178938
 20
363.9964663860522
 30
0.0
 11
416.4653762178938
 21
364.3016353024477
 31
0.0
  0
LINE
  5
A53
330
1F
100
AcDbEntity
  8
INDUSA
  6
Continuous
100
AcDbLine
 10
416.5385031998843
 20
363.9831110508599
 30
0.0
 11
416.4664111173904
 21
363.9805935398648
 31
0.0
  0
LINE
  5
A56
330
1F
100
AcDbEntity
  8
INDUSA
  6
Continuous
100
AcDbLine
 10
416.5433287024008
 20
364.155696585077
 30
0.0
 11
416.5433287024008
 21
363.9994633191538
 31
0.0
  0
LWPOLYLINE
  5
A58
330
1F
100
AcDbEntity
  8
INDUSA
  6
Continuous
100
AcDbPolyline
 90
        8
 70
   128
 43
0.0
 10
416.5415487476921
 20
363.9842829156728
 10
416.5422039884068
 20
363.9850997845801
 10
416.5426446386469
 20
363.986207873582
 10
416.542968895656
 20
363.9877821624503
 10
416.5431625358423
 20
363.9896781297498
 10
416.5432830923107
 20
363.9924553626909
 10
416.5433230332699
 20
363.9956011639807
 10
416.5433287024008
 20
363.9984979740592
  0
ARC
  5
A5B
330
1F
100
AcDbEntity
  8
INDUSA
  6
Continuous
100
AcDbCircle
 10
416.5383287024008
 20
363.988108004995
 30
0.0
 40
0.0050000000000003
100
AcDbArc
 50
271.9999999999254
 51
310.0914186617757
  0
LINE
  5
A5E
330
1F
100
AcDbEntity
  8
INDUSA
  6
Continuous
100
AcDbLine
 10
416.5433287024008
 20
363.9994633191538
 30
0.0
 11
416.5433287024008
 21
363.9984979740593
 31
0.0
  0
LINE
  5
A66
330
1F
100
AcDbEntity
  8
INDUSA
  6
Continuous
100
AcDbLine
 10
416.4653762178938
 20
363.9815929306918
 30
0.0
 11
416.4653762178938
 21
363.9964663860522
 31
0.0
  0
ARC
  5
A68
330
1F
100
AcDbEntity
  8
INDUSA
  6
Continuous
100
AcDbCircle
 10
416.4663762178937
 20
363.9815929306918
 30
0.0
 40
0.0010000000000001
100
AcDbArc
 50
180.0
 51
272.0000000000819
  0
LWPOLYLINE
  5
A6A
330
1F
100
AcDbEntity
  8
INDUSA
  6
Continuous
100
AcDbPolyline
 90
        4
 70
   128
 43
0.0
 10
416.4789539279456
 20
364.336557400378
 10
416.4768100453682
 20
364.3370478414234
 10
416.4749577975016
 20
364.3383213333462
 10
416.4732502841465
 20
364.3398650631094
  0
LINE
  5
A6B
330
1F
100
AcDbEntity
  8
INDUSA
  6
Continuous
100
AcDbLine
 10
416.5749119160692
 20
364.336557400378
 30
0.0
 11
416.4789539279456
 21
364.336557400378
 31
0.0
  0
LINE
  5
A6D
330
1F
100
AcDbEntity
  8
INDUSA
  6
Continuous
100
AcDbLine
 10
416.5801302002098
 20
364.2575540349324
 30
0.0
 11
416.5788957058651
 21
364.2929053195407
 31
0.0
  0
LINE
  5
A71
330
1F
100
AcDbEntity
  8
INDUSA
  6
Continuous
100
AcDbLine
 10
416.5053762178938
 20
364.2965592928943
 30
0.0
 11
416.5053762178938
 21
364.2411403764224
 31
0.0
  0
LINE
  5
A73
330
1F
100
AcDbEntity
  8
INDUSA
  6
Continuous
100
AcDbLine
 10
416.5821431562918
 20
364.1999105280204
 30
0.0
 11
416.5801302002098
 21
364.2575540349324
 31
0.0
  0
LWPOLYLINE
  5
A75
330
1F
100
AcDbEntity
  8
INDUSA
  6
Continuous
100
AcDbPolyline
 90
       12
 70
   128
 43
0.0
 10
416.5821430769761
 20
364.1999127993248
 10
416.5821430789999
 20
364.1999127413706
 10
416.5827815956975
 20
364.1930581971606
 10
416.5843437279312
 20
364.1863640610603
 10
416.585797268692
 20
364.1825585137167
 10
416.5877467506651
 20
364.1789778296618
 10
416.5895229740253
 20
364.1766169855269
 10
416.591660106406
 20
364.1745661674338
 10
416.5932481993762
 20
364.1734836951871
 10
416.5949941789317
 20
364.1726631367041
 10
416.5960302112405
 20
364.1723465916785
 10
416.5960302691303
 20
364.1723465774075
  0
LWPOLYLINE
  5
A77
330
1F
100
AcDbEntity
  8
INDUSA
  6
Continuous
100
AcDbPolyline
 90
        4
 70
   128
 43
0.0
 10
416.5053762178938
 20
364.2411403764224
 10
416.5057902210659
 20
364.2361736076843
 10
416.5070734478303
 20
364.2311928537795
 10
416.5089794409166
 20
364.2268851961285
  0
LINE
  5
A7B
330
1F
100
AcDbEntity
  8
INDUSA
  6
Continuous
100
AcDbLine
 10
416.5089794409166
 20
364.2268851961285
 30
0.0
 11
416.5397254793781
 21
364.1699517653709
 31
0.0
  0
LINE
  5
A82
330
1F
100
AcDbEntity
  8
INDUSA
  6
Continuous
100
AcDbLine
 10
416.5706922914416
 20
364.3015574003781
 30
0.0
 11
416.5103762178938
 21
364.3015574003781
 31
0.0
  0
LINE
  5
A8D
330
1F
100
AcDbEntity
  8
INDUSA
100
AcDbLine
 10
416.5787954462246
 20
364.336557400378
 30
0.0
 11
416.5749119160692
 21
364.336557400378
 31
0.0
  0
LINE
  5
A96
330
1F
100
AcDbEntity
  8
INDUSA
  6
Continuous
100
AcDbLine
 10
416.4653762178938
 20
364.3016352849647
 30
0.0
 11
416.4653762178938
 21
364.3313053616489
 31
0.0
  0
LINE
  5
A98
330
1F
100
AcDbEntity
  8
INDUSA
100
AcDbLine
 10
416.4653762178938
 20
364.3415151987265
 30
0.0
 11
416.4653762178938
 21
364.3413825275886
 31
0.0
  0
LWPOLYLINE
  5
A99
330
1F
100
AcDbEntity
  8
INDUSA
  6
Continuous
100
AcDbPolyline
 90
        4
 70
   128
 43
0.0
 10
416.4732091532443
 20
364.3398117379705
 10
416.4722927893741
 20
364.3405390708942
 10
416.4695041015984
 20
364.3418768771969
 10
416.4664604907245
 20
364.3425116463011
  0
LWPOLYLINE
  5
A9A
330
1F
100
AcDbEntity
  8
INDUSA
  6
Continuous
100
AcDbPolyline
 90
        6
 70
   128
 43
0.0
 10
416.4653762178938
 20
364.3415151987265
 10
416.4654325895253
 20
364.3418462071415
 10
416.4655953491293
 20
364.342139896876
 10
416.4658461464345
 20
364.3423631558351
 10
416.4661567047216
 20
364.3424908130181
 10
416.4664604907245
 20
364.3425116463011
  0
LINE
  5
A9D
330
1F
100
AcDbEntity
  8
INDUSA
  6
Continuous
100
AcDbLine
 10
416.4653762178938
 20
364.3313053616489
 30
0.0
 11
416.4653762178938
 21
364.3355574003781
 31
0.0
  0
LINE
  5
AA0
330
1F
100
AcDbEntity
  8
INDUSA
  6
Continuous
100
AcDbLine
 10
416.4653762178938
 20
364.3354644675932
 30
0.0
 11
416.4653762178938
 21
364.3413825275886
 31
0.0
  0
ARC
  5
B4C
330
1F
100
AcDbEntity
  8
sanindusa
100
AcDbCircle
 10
416.5103762180957
 20
364.2965573998177
 30
0.0
 40
0.0050000005602771
100
AcDbArc
 50
90.00000231369295
 51
179.9783069425018
  0
ARC
  5
B4D
330
1F
100
AcDbEntity
  8
sanindusa
100
AcDbCircle
 10
416.5701569199938
 20
364.2928347438533
 30
0.0
 40
0.008739070856381
100
AcDbArc
 50
0.4627188683654181
 51
86.48775660672395
  0
ENDSEC
  0
SECTION
  2
OBJECTS
  0
DICTIONARY
  5
C
330
0
100
AcDbDictionary
281
     1
  3
ACAD_COLOR
350
B29
  3
ACAD_GROUP
350
D
  3
ACAD_LAYOUT
350
1A
  3
ACAD_MATERIAL
350
B28
  3
ACAD_MLINESTYLE
350
17
  3
ACAD_PLOTSETTINGS
350
19
  3
ACAD_PLOTSTYLENAME
350
E
  3
ACAD_TABLESTYLE
350
B2A
  3
ACDBHEADERROUNDTRIPXREC
350
B50
  3
AcDbVariableDictionary
350
B23
  3
ASE_INDEX_DICTIONARY
350
B1F
  0
DICTIONARY
  5
B29
102
{ACAD_REACTORS
330
C
102
}
330
C
100
AcDbDictionary
281
     1
  0
DICTIONARY
  5
D
102
{ACAD_REACTORS
330
C
102
}
330
C
100
AcDbDictionary
281
     1
  0
DICTIONARY
  5
1A
102
{ACAD_REACTORS
330
C
102
}
330
C
100
AcDbDictionary
281
     1
  3
Layout1
350
1E
  3
Layout2
350
26
  3
Model
350
22
  0
DICTIONARY
  5
B28
102
{ACAD_REACTORS
330
C
102
}
330
C
100
AcDbDictionary
281
     1
  0
DICTIONARY
  5
17
102
{ACAD_REACTORS
330
C
102
}
330
C
100
AcDbDictionary
281
     1
  3
Standard
350
18
  0
DICTIONARY
  5
19
102
{ACAD_REACTORS
330
C
102
}
330
C
100
AcDbDictionary
281
     1
  0
ACDBDICTIONARYWDFLT
  5
E
102
{ACAD_REACTORS
330
C
102
}
330
C
100
AcDbDictionary
281
     1
  3
Normal
350
F
100
AcDbDictionaryWithDefault
340
F
  0
DICTIONARY
  5
B2A
102
{ACAD_REACTORS
330
C
102
}
330
C
100
AcDbDictionary
281
     1
  3
Standard
350
B2B
  0
DICTIONARY
  5
B50
102
{ACAD_REACTORS
330
C
102
}
330
C
100
AcDbDictionary
281
     1
  0
DICTIONARY
  5
B23
102
{ACAD_REACTORS
330
C
102
}
330
C
100
AcDbDictionary
281
     1
  3
CTABLESTYLE
350
B37
  3
DIMASSOC
350
B25
  3
HIDETEXT
350
B24
  3
PROJECTNAME
350
B38
  0
DICTIONARY
  5
B1F
102
{ACAD_REACTORS
330
C
102
}
330
C
100
AcDbDictionary
281
     1
  3
ASEBlockHierarchyIndexRecord
350
B21
1001
DCO15
1040
1477905064.015
  0
LAYOUT
  5
1E
102
{ACAD_XDICTIONARY
360
B51
102
}
102
{ACAD_REACTORS
330
1A
102
}
330
1A
100
AcDbPlotSettings
  1

  2
PLOTER 500
  4

  6

 40
0.0
 41
0.0
 42
0.0
 43
0.0
 44
0.0
 45
0.0
 46
0.0
 47
0.0
 48
0.0
 49
0.0
140
0.0
141
0.0
142
1.0
143
1.0
 70
   688
 72
     0
 73
     0
 74
     5
  7

 75
    16
147
1.0
148
0.0
149
0.0
100
AcDbLayout
  1
Layout1
 70
     1
 71
     1
 10
0.0
 20
0.0
 11
420.0
 21
297.0
 12
0.0
 22
0.0
 32
0.0
 14
1.000000000000000E+20
 24
1.000000000000000E+20
 34
1.000000000000000E+20
 15
-1.000000000000000E+20
 25
-1.000000000000000E+20
 35
-1.000000000000000E+20
146
0.0
 13
0.0
 23
0.0
 33
0.0
 16
1.0
 26
0.0
 36
0.0
 17
0.0
 27
1.0
 37
0.0
 76
     0
330
1B
  0
LAYOUT
  5
26
102
{ACAD_XDICTIONARY
360
B55
102
}
102
{ACAD_REACTORS
330
1A
102
}
330
1A
100
AcDbPlotSettings
  1

  2
PLOTER 500
  4

  6

 40
0.0
 41
0.0
 42
0.0
 43
0.0
 44
0.0
 45
0.0
 46
0.0
 47
0.0
 48
0.0
 49
0.0
140
0.0
141
0.0
142
1.0
143
1.0
 70
   688
 72
     0
 73
     0
 74
     5
  7

 75
    16
147
1.0
148
0.0
149
0.0
100
AcDbLayout
  1
Layout2
 70
     1
 71
     2
 10
0.0
 20
0.0
 11
12.0
 21
9.0
 12
0.0
 22
0.0
 32
0.0
 14
0.0
 24
0.0
 34
0.0
 15
0.0
 25
0.0
 35
0.0
146
0.0
 13
0.0
 23
0.0
 33
0.0
 16
1.0
 26
0.0
 36
0.0
 17
0.0
 27
1.0
 37
0.0
 76
     0
330
23
  0
LAYOUT
  5
22
102
{ACAD_XDICTIONARY
360
B53
102
}
102
{ACAD_REACTORS
330
1A
102
}
330
1A
100
AcDbPlotSettings
  1

  2
PLOTER 500
  4

  6

 40
0.0
 41
0.0
 42
0.0
 43
0.0
 44
0.0
 45
0.0
 46
0.0
 47
0.0
 48
0.0
 49
0.0
140
0.0
141
0.0
142
1.0
143
1.0
 70
  1712
 72
     0
 73
     0
 74
     0
  7

 75
     0
147
1.0
148
0.0
149
0.0
100
AcDbLayout
  1
Model
 70
     1
 71
     0
 10
0.0
 20
0.0
 11
12.0
 21
9.0
 12
0.0
 22
0.0
 32
0.0
 14
0.0
 24
0.0
 34
0.0
 15
0.0
 25
0.0
 35
0.0
146
0.0
 13
0.0
 23
0.0
 33
0.0
 16
1.0
 26
0.0
 36
0.0
 17
0.0
 27
1.0
 37
0.0
 76
     0
330
1F
  0
MLINESTYLE
  5
18
102
{ACAD_REACTORS
330
17
102
}
330
17
100
AcDbMlineStyle
  2
STANDARD
 70
     0
  3

 62
   256
 51
90.0
 52
90.0
 71
     2
 49
0.5
 62
   256
  6
BYLAYER
 49
-0.5
 62
   256
  6
BYLAYER
  0
ACDBPLACEHOLDER
  5
F
102
{ACAD_REACTORS
330
E
102
}
330
E
  0
TABLESTYLE
  5
B2B
102
{ACAD_REACTORS
330
B2A
102
}
330
B2A
100
AcDbTableStyle
  3
Standard
 70
     0
 71
     0
 40
1.5
 41
1.5
280
     0
281
     0
  7
Standard
140
4.5
170
     2
 62
     0
 63
     7
283
     0
274
    -2
284
     1
 64
     0
275
    -2
285
     1
 65
     0
276
    -2
286
     1
 66
     0
277
    -2
287
     1
 67
     0
278
    -2
288
     1
 68
     0
279
    -2
289
     1
 69
     0
  7
Standard
140
6.0
170
     5
 62
     0
 63
     7
283
     0
274
    -2
284
     1
 64
     0
275
    -2
285
     1
 65
     0
276
    -2
286
     1
 66
     0
277
    -2
287
     1
 67
     0
278
    -2
288
     1
 68
     0
279
    -2
289
     1
 69
     0
  7
Standard
140
4.5
170
     5
 62
     0
 63
     7
283
     0
274
    -2
284
     1
 64
     0
275
    -2
285
     1
 65
     0
276
    -2
286
     1
 66
     0
277
    -2
287
     1
 67
     0
278
    -2
288
     1
 68
     0
279
    -2
289
     1
 69
     0
  0
DICTIONARYVAR
  5
B37
102
{ACAD_REACTORS
330
B23
102
}
330
B23
100
DictionaryVariables
280
     0
  1
STANDARD
  0
DICTIONARYVAR
  5
B25
102
{ACAD_REACTORS
330
B23
102
}
330
B23
100
DictionaryVariables
280
     0
  1
2
  0
DICTIONARYVAR
  5
B24
102
{ACAD_REACTORS
330
B23
102
}
330
B23
100
DictionaryVariables
280
     0
  1
1
  0
DICTIONARYVAR
  5
B38
102
{ACAD_REACTORS
330
B23
102
}
330
B23
100
DictionaryVariables
280
     0
  1

  0
XRECORD
  5
B21
102
{ACAD_REACTORS
330
B1F
102
}
330
B1F
100
AcDbXrecord
280
     1
  0
DICTIONARY
  5
B51
330
1E
100
AcDbDictionary
280
     1
281
     1
  3
ACAD_XREC_ROUNDTRIP
360
B52
  0
DICTIONARY
  5
B55
330
26
100
AcDbDictionary
280
     1
281
     1
  3
ACAD_XREC_ROUNDTRIP
360
B56
  0
DICTIONARY
  5
B53
330
22
100
AcDbDictionary
280
     1
281
     1
  3
ACAD_XREC_ROUNDTRIP
360
B54
  0
XRECORD
  5
B52
102
{ACAD_REACTORS
330
B51
102
}
330
B51
100
AcDbXrecord
280
     1
102
SHADEPLOT
 70
     0
102
SHADEPLOTRESLEVEL
 70
     2
102
SHADEPLOTCUSTOMDPI
 70
   300
  0
XRECORD
  5
B56
102
{ACAD_REACTORS
330
B55
102
}
330
B55
100
AcDbXrecord
280
     1
102
SHADEPLOT
 70
     0
102
SHADEPLOTRESLEVEL
 70
     2
102
SHADEPLOTCUSTOMDPI
 70
   300
  0
XRECORD
  5
B54
102
{ACAD_REACTORS
330
B53
102
}
330
B53
100
AcDbXrecord
280
     1
102
SHADEPLOT
 70
     0
102
SHADEPLOTRESLEVEL
 70
     2
102
SHADEPLOTCUSTOMDPI
 70
   300
  0
ENDSEC
  0
EOF
